  0
SECTION
  2
HEADER
  9
$ACADVER
  1
AC1009
  9
$INSBASE
 10
0.0
 20
0.0
 30
0.0
  9
$EXTMIN
 10
-10.286
 20
-10.286
 30
0.0
  9
$EXTMAX
 10
10.286
 20
10.286
 30
108.0
  9
$LIMMIN
 10
0.0
 20
0.0
  9
$LIMMAX
 10
12.0
 20
9.0
  9
$ORTHOMODE
 70
     0
  9
$REGENMODE
 70
     1
  9
$FILLMODE
 70
     1
  9
$QTEXTMODE
 70
     0
  9
$MIRRTEXT
 70
     1
  9
$DRAGMODE
 70
     2
  9
$LTSCALE
 40
1.0
  9
$OSMODE
 70
     0
  9
$ATTMODE
 70
     1
  9
$TEXTSIZE
 40
0.2
  9
$TRACEWID
 40
0.05
  9
$TEXTSTYLE
  7
STANDARD
  9
$CLAYER
  8
0
  9
$CELTYPE
  6
BYLAYER
  9
$CECOLOR
 62
   256
  9
$DIMSCALE
 40
1.0
  9
$DIMASZ
 40
0.18
  9
$DIMEXO
 40
0.063
  9
$DIMDLI
 40
0.38
  9
$DIMRND
 40
0.0
  9
$DIMDLE
 40
0.0
  9
$DIMEXE
 40
0.18
  9
$DIMTP
 40
0.0
  9
$DIMTM
 40
0.0
  9
$DIMTXT
 40
0.18
  9
$DIMCEN
 40
0.09
  9
$DIMTSZ
 40
0.0
  9
$DIMTOL
 70
     0
  9
$DIMLIM
 70
     0
  9
$DIMTIH
 70
     1
  9
$DIMTOH
 70
     1
  9
$DIMSE1
 70
     0
  9
$DIMSE2
 70
     0
  9
$DIMTAD
 70
     0
  9
$DIMZIN
 70
     0
  9
$DIMBLK
  1

  9
$DIMASO
 70
     1
  9
$DIMSHO
 70
     1
  9
$DIMPOST
  1

  9
$DIMAPOST
  1

  9
$DIMALT
 70
     0
  9
$DIMALTD
 70
     2
  9
$DIMALTF
 40
25.4
  9
$DIMLFAC
 40
1.0
  9
$DIMTOFL
 70
     0
  9
$DIMTVP
 40
0.0
  9
$DIMTIX
 70
     0
  9
$DIMSOXD
 70
     0
  9
$DIMSAH
 70
     0
  9
$DIMBLK1
  1

  9
$DIMBLK2
  1

  9
$DIMSTYLE
  2
*UNNAMED
  9
$DIMCLRD
 70
     0
  9
$DIMCLRE
 70
     0
  9
$DIMCLRT
 70
     0
  9
$DIMTFAC
 40
1.0
  9
$DIMGAP
 40
0.09
  9
$LUNITS
 70
     2
  9
$LUPREC
 70
     4
  9
$SKETCHINC
 40
0.1
  9
$FILLETRAD
 40
0.0
  9
$AUNITS
 70
     0
  9
$AUPREC
 70
     0
  9
$MENU
  1
acad
  9
$ELEVATION
 40
0.0
  9
$PELEVATION
 40
0.0
  9
$THICKNESS
 40
0.0
  9
$LIMCHECK
 70
     0
  9
$BLIPMODE
 70
     1
  9
$CHAMFERA
 40
0.0
  9
$CHAMFERB
 40
0.0
  9
$SKPOLY
 70
     0
  9
$TDCREATE
 40
2449312.864055555
  9
$TDUPDATE
 40
2449857.561028240
  9
$TDINDWG
 40
0.0031803241
  9
$TDUSRTIMER
 40
0.0031803241
  9
$USRTIMER
 70
     1
  9
$ANGBASE
 50
0.0
  9
$ANGDIR
 70
     0
  9
$PDMODE
 70
     0
  9
$PDSIZE
 40
0.0
  9
$PLINEWID
 40
0.0
  9
$COORDS
 70
     1
  9
$SPLFRAME
 70
     0
  9
$SPLINETYPE
 70
     6
  9
$SPLINESEGS
 70
     8
  9
$ATTDIA
 70
     0
  9
$ATTREQ
 70
     1
  9
$HANDLING
 70
     1
  9
$HANDSEED
  5
9AA
  9
$SURFTAB1
 70
     6
  9
$SURFTAB2
 70
     6
  9
$SURFTYPE
 70
     6
  9
$SURFU
 70
     6
  9
$SURFV
 70
     6
  9
$UCSNAME
  2

  9
$UCSORG
 10
0.0
 20
0.0
 30
0.0
  9
$UCSXDIR
 10
1.0
 20
0.0
 30
0.0
  9
$UCSYDIR
 10
0.0
 20
1.0
 30
0.0
  9
$PUCSNAME
  2

  9
$PUCSORG
 10
0.0
 20
0.0
 30
0.0
  9
$PUCSXDIR
 10
1.0
 20
0.0
 30
0.0
  9
$PUCSYDIR
 10
0.0
 20
1.0
 30
0.0
  9
$USERI1
 70
     0
  9
$USERI2
 70
     0
  9
$USERI3
 70
     0
  9
$USERI4
 70
     0
  9
$USERI5
 70
     0
  9
$USERR1
 40
0.0
  9
$USERR2
 40
0.0
  9
$USERR3
 40
0.0
  9
$USERR4
 40
0.0
  9
$USERR5
 40
0.0
  9
$WORLDVIEW
 70
     1
  9
$SHADEDGE
 70
     3
  9
$SHADEDIF
 70
    70
  9
$TILEMODE
 70
     1
  9
$MAXACTVP
 70
    16
  9
$PINSBASE
 10
0.0
 20
0.0
 30
0.0
  9
$PLIMCHECK
 70
     0
  9
$PEXTMIN
 10
1.000E+20
 20
1.000E+20
 30
1.000E+20
  9
$PEXTMAX
 10
-1.000E+20
 20
-1.000E+20
 30
-1.000E+20
  9
$PLIMMIN
 10
0.0
 20
0.0
  9
$PLIMMAX
 10
12.0
 20
9.0
  9
$UNITMODE
 70
     0
  9
$VISRETAIN
 70
     0
  9
$PLINEGEN
 70
     0
  9
$PSLTSCALE
 70
     1
  9
$TREEDEPTH
 70
  3020
  9
$DWGCODEPAGE
  3
ascii
  0
ENDSEC
  0
SECTION
  2
TABLES
  0
TABLE
  2
VPORT
 70
     2
  0
VPORT
  2
*ACTIVE
 70
     0
 10
0.0
 20
0.0
 11
1.0
 21
1.0
 12
56.961732
 22
44.090815
 13
0.0
 23
0.0
 14
1.0
 24
1.0
 15
0.0
 25
0.0
 16
1.0
 26
1.0
 36
1.0
 17
0.0
 27
0.0
 37
0.0
 40
104.978132
 41
1.36234
 42
50.0
 43
0.0
 44
0.0
 50
0.0
 51
0.0
 71
     0
 72
   100
 73
     1
 74
     1
 75
     0
 76
     0
 77
     0
 78
     0
  0
ENDTAB
  0
TABLE
  2
LTYPE
 70
     1
  0
LTYPE
  2
CONTINUOUS
 70
    64
  3
Solid line
 72
    65
 73
     0
 40
0.0
  0
ENDTAB
  0
TABLE
  2
LAYER
 70
     4
  0
LAYER
  2
0
 70
    64
 62
     7
  6
CONTINUOUS
  0
LAYER
  2
04ZCOL05-MAIN
 70
    64
 62
     7
  6
CONTINUOUS
  0
LAYER
  2
VLLAYER
 70
    64
 62
     7
  6
CONTINUOUS
  0
LAYER
  2
VLMERGE
 70
     0
 62
     7
  6
CONTINUOUS
  0
ENDTAB
  0
TABLE
  2
STYLE
 70
     1
  0
STYLE
  2
STANDARD
 70
     0
 40
0.0
 41
1.0
 50
0.0
 71
     0
 42
0.2
  3
txt
  4

  0
ENDTAB
  0
TABLE
  2
VIEW
 70
     0
  0
ENDTAB
  0
TABLE
  2
UCS
 70
     0
  0
ENDTAB
  0
TABLE
  2
APPID
 70
     2
  0
APPID
  2
ACAD
 70
    64
  0
APPID
  2
VISUAL_LINK
 70
    64
  0
ENDTAB
  0
TABLE
  2
DIMSTYLE
 70
     0
  0
ENDTAB
  0
ENDSEC
  0
SECTION
  2
BLOCKS
  0
BLOCK
  8
0
  5
6
  2
VISLINKCFG
 70
    64
 10
0.0
 20
0.0
 30
0.0
  1
VISLINKCFG
  3
VISLINKCFG
  0
ENDBLK
  8
0
  5
7
  0
BLOCK
  8
0
  5
6F
  2
VLTREE
 70
    64
 10
0.0
 20
0.0
 30
0.0
  1
VLTREE
  3
VLTREE
  0
ENDBLK
  8
0
  5
70
  0
BLOCK
  8
0
  5
71
  2
VLMAPRT
 70
    64
 10
0.0
 20
0.0
 30
0.0
  1
VLMAPRT
  3
VLMAPRT
  0
ENDBLK
  8
0
  5
72
  0
BLOCK
  8
0
  5
73
  2
VLMAP
 70
    64
 10
0.0
 20
0.0
 30
0.0
  1
VLMAP
  3
VLMAP
  0
ENDBLK
  8
0
  5
74
  0
BLOCK
  8
0
  5
77
  2
VLMAT
 70
    64
 10
0.0
 20
0.0
 30
0.0
  1
VLMAT
  3
VLMAT
  0
ENDBLK
  8
0
  5
78
  0
BLOCK
  8
0
  5
93B
  2
VLOMNI
 70
     0
 10
0.0
 20
0.0
 30
0.0
  3
VLOMNI
  0
LINE
  8
0
 62
     0
  5
93D
 10
-5.0
 20
0.0
 30
0.0
 11
5.0
 21
0.0
 31
0.0
  0
LINE
  8
0
 62
     0
  5
93E
 10
0.0
 20
-5.0
 30
0.0
 11
0.0
 21
5.0
 31
0.0
  0
LINE
  8
0
 62
     0
  5
93F
 10
0.0
 20
0.0
 30
-5.0
 11
0.0
 21
0.0
 31
5.0
  0
LINE
  8
0
 62
     0
  5
940
 10
-4.0
 20
-4.0
 30
-4.0
 11
4.0
 21
4.0
 31
4.0
  0
LINE
  8
0
 62
     0
  5
941
 10
4.0
 20
-4.0
 30
-4.0
 11
-4.0
 21
4.0
 31
4.0
  0
LINE
  8
0
 62
     0
  5
942
 10
4.0
 20
4.0
 30
-4.0
 11
-4.0
 21
-4.0
 31
4.0
  0
ENDBLK
  8
0
  5
944
  0
BLOCK
  8
0
  5
946
  2
VLSPOT
 70
     0
 10
0.0
 20
0.0
 30
0.0
  3
VLSPOT
  0
LINE
  8
0
 62
     0
  5
948
 10
-5.0
 20
0.0
 30
0.0
 11
5.0
 21
0.0
 31
0.0
  0
LINE
  8
0
 62
     0
  5
949
 10
0.0
 20
-5.0
 30
0.0
 11
0.0
 21
5.0
 31
0.0
  0
LINE
  8
0
 62
     0
  5
94A
 10
0.0
 20
0.0
 30
-5.0
 11
0.0
 21
0.0
 31
5.0
  0
LINE
  8
0
 62
     0
  5
94B
 10
-4.0
 20
-4.0
 30
-4.0
 11
4.0
 21
4.0
 31
4.0
  0
LINE
  8
0
 62
     0
  5
94C
 10
4.0
 20
-4.0
 30
-4.0
 11
-4.0
 21
4.0
 31
4.0
  0
LINE
  8
0
 62
     0
  5
94D
 10
4.0
 20
4.0
 30
-4.0
 11
-4.0
 21
-4.0
 31
4.0
  0
ENDBLK
  8
0
  5
94F
  0
BLOCK
  8
0
  5
951
  2
VLTARGET
 70
     0
 10
0.0
 20
0.0
 30
0.0
  3
VLTARGET
  0
LINE
  8
0
 62
     0
  5
95F
 10
-2.0
 20
-2.0
 30
-2.0
 11
2.0
 21
-2.0
 31
-2.0
  0
LINE
  8
0
 62
     0
  5
960
 10
2.0
 20
-2.0
 30
-2.0
 11
2.0
 21
2.0
 31
-2.0
  0
LINE
  8
0
 62
     0
  5
961
 10
2.0
 20
2.0
 30
-2.0
 11
-2.0
 21
2.0
 31
-2.0
  0
LINE
  8
0
 62
     0
  5
962
 10
-2.0
 20
2.0
 30
-2.0
 11
-2.0
 21
-2.0
 31
-2.0
  0
LINE
  8
0
 62
     0
  5
963
 10
-2.0
 20
2.0
 30
2.0
 11
-2.0
 21
-2.0
 31
2.0
  0
LINE
  8
0
 62
     0
  5
964
 10
2.0
 20
2.0
 30
2.0
 11
-2.0
 21
2.0
 31
2.0
  0
LINE
  8
0
 62
     0
  5
965
 10
2.0
 20
-2.0
 30
2.0
 11
2.0
 21
2.0
 31
2.0
  0
LINE
  8
0
 62
     0
  5
966
 10
-2.0
 20
-2.0
 30
2.0
 11
2.0
 21
-2.0
 31
2.0
  0
LINE
  8
0
 62
     0
  5
967
 10
2.0
 20
2.0
 30
2.0
 11
2.0
 21
2.0
 31
-2.0
  0
LINE
  8
0
 62
     0
  5
968
 10
-2.0
 20
2.0
 30
2.0
 11
-2.0
 21
2.0
 31
-2.0
  0
LINE
  8
0
 62
     0
  5
969
 10
-2.0
 20
-2.0
 30
2.0
 11
-2.0
 21
-2.0
 31
-2.0
  0
LINE
  8
0
 62
     0
  5
96A
 10
2.0
 20
-2.0
 30
2.0
 11
2.0
 21
-2.0
 31
-2.0
  0
ENDBLK
  8
0
  5
96C
  0
BLOCK
  8
0
  5
96E
  2
VLCAMERA
 70
     0
 10
0.0
 20
0.0
 30
0.0
  3
VLCAMERA
  0
LINE
  8
0
 62
     0
  5
97F
 10
5.0
 20
0.0
 30
0.0
 11
7.0
 21
0.0
 31
0.0
  0
LINE
  8
0
 62
     0
  5
981
 10
-5.0
 20
0.0
 30
0.0
 11
-7.0
 21
0.0
 31
0.0
  0
LINE
  8
0
 62
     0
  5
983
 10
0.0
 20
0.0
 30
5.0
 11
0.0
 21
0.0
 31
7.0
  0
LINE
  8
0
 62
     0
  5
984
 10
0.0
 20
0.0
 30
-5.0
 11
0.0
 21
0.0
 31
-7.0
  0
LINE
  8
0
 62
     0
  5
985
 10
0.0
 20
5.0
 30
0.0
 11
0.0
 21
7.0
 31
0.0
  0
LINE
  8
0
 62
     0
  5
986
 10
0.0
 20
-5.0
 30
0.0
 11
0.0
 21
-7.0
 31
0.0
  0
LINE
  8
0
 62
     0
  5
98B
 10
-5.0
 20
-5.0
 30
0.0
 11
-5.0
 21
5.0
 31
0.0
  0
LINE
  8
0
 62
     0
  5
98C
 10
-5.0
 20
5.0
 30
0.0
 11
5.0
 21
5.0
 31
0.0
  0
LINE
  8
0
 62
     0
  5
98D
 10
5.0
 20
5.0
 30
0.0
 11
5.0
 21
-5.0
 31
0.0
  0
LINE
  8
0
 62
     0
  5
98E
 10
5.0
 20
-5.0
 30
0.0
 11
-5.0
 21
-5.0
 31
0.0
  0
LINE
  8
0
 62
     0
  5
98F
 10
0.0
 20
-5.0
 30
-5.0
 11
0.0
 21
5.0
 31
-5.0
  0
LINE
  8
0
 62
     0
  5
990
 10
0.0
 20
5.0
 30
-5.0
 11
0.0
 21
5.0
 31
5.0
  0
LINE
  8
0
 62
     0
  5
991
 10
0.0
 20
5.0
 30
5.0
 11
0.0
 21
-5.0
 31
5.0
  0
LINE
  8
0
 62
     0
  5
992
 10
0.0
 20
-5.0
 30
5.0
 11
0.0
 21
-5.0
 31
-5.0
  0
LINE
  8
0
 62
     0
  5
998
 10
-5.0
 20
0.0
 30
-5.0
 11
5.0
 21
0.0
 31
-5.0
  0
LINE
  8
0
 62
     0
  5
999
 10
5.0
 20
0.0
 30
-5.0
 11
5.0
 21
0.0
 31
5.0
  0
LINE
  8
0
 62
     0
  5
99A
 10
5.0
 20
0.0
 30
5.0
 11
-5.0
 21
0.0
 31
5.0
  0
LINE
  8
0
 62
     0
  5
99B
 10
-5.0
 20
0.0
 30
5.0
 11
-5.0
 21
0.0
 31
-5.0
  0
ENDBLK
  8
0
  5
99D
  0
BLOCK
  8
0
  5
99F
  2
VLDUMMY
 70
     0
 10
0.0
 20
0.0
 30
0.0
  1
VLDUMMY
  3
VLDUMMY
  0
ENDBLK
  8
0
  5
9A0
  0
BLOCK
  8
0
  5
9A1
  2
VLMAPLNK
 70
     0
 10
0.0
 20
0.0
 30
0.0
  1
VLMAPLNK
  3
VLMAPLNK
  0
ENDBLK
  8
0
  5
9A2
  0
ENDSEC
  0
SECTION
  2
ENTITIES
  0
POLYLINE
  8
04ZCOL05-MAIN
  5
79
 66
     1
 10
0.0
 20
0.0
 30
0.0
 70
    64
 71
   752
 72
  1474
  0
VERTEX
  8
04ZCOL05-MAIN
  5
7A
 10
9.408
 20
9.407
 30
107.252
 70
   192
  0
VERTEX
  8
04ZCOL05-MAIN
  5
7B
 10
9.158
 20
9.158
 30
106.65
 70
   192
  0
VERTEX
  8
04ZCOL05-MAIN
  5
7C
 10
10.286
 20
-10.286
 30
107.502
 70
   192
  0
VERTEX
  8
04ZCOL05-MAIN
  5
7D
 10
10.286
 20
10.286
 30
107.502
 70
   192
  0
VERTEX
  8
04ZCOL05-MAIN
  5
7E
 10
-10.286
 20
10.286
 30
108.0
 70
   192
  0
VERTEX
  8
04ZCOL05-MAIN
  5
7F
 10
-10.286
 20
-10.286
 30
108.0
 70
   192
  0
VERTEX
  8
04ZCOL05-MAIN
  5
80
 10
-10.286
 20
10.286
 30
107.502
 70
   192
  0
VERTEX
  8
04ZCOL05-MAIN
  5
81
 10
-9.407
 20
9.408
 30
107.252
 70
   192
  0
VERTEX
  8
04ZCOL05-MAIN
  5
82
 10
-9.158
 20
9.158
 30
106.65
 70
   192
  0
VERTEX
  8
04ZCOL05-MAIN
  5
83
 10
-9.158
 20
-9.158
 30
105.429
 70
   192
  0
VERTEX
  8
04ZCOL05-MAIN
  5
84
 10
10.286
 20
-10.286
 30
108.0
 70
   192
  0
VERTEX
  8
04ZCOL05-MAIN
  5
85
 10
-10.286
 20
-10.286
 30
107.502
 70
   192
  0
VERTEX
  8
04ZCOL05-MAIN
  5
86
 10
-9.158
 20
-9.158
 30
106.65
 70
   192
  0
VERTEX
  8
04ZCOL05-MAIN
  5
87
 10
9.158
 20
-9.158
 30
105.429
 70
   192
  0
VERTEX
  8
04ZCOL05-MAIN
  5
88
 10
9.158
 20
-9.158
 30
106.65
 70
   192
  0
VERTEX
  8
04ZCOL05-MAIN
  5
89
 10
9.407
 20
-9.408
 30
107.252
 70
   192
  0
VERTEX
  8
04ZCOL05-MAIN
  5
8A
 10
-9.408
 20
-9.407
 30
107.252
 70
   192
  0
VERTEX
  8
04ZCOL05-MAIN
  5
8B
 10
-9.158
 20
9.158
 30
105.429
 70
   192
  0
VERTEX
  8
04ZCOL05-MAIN
  5
8C
 10
9.158
 20
9.158
 30
105.429
 70
   192
  0
VERTEX
  8
04ZCOL05-MAIN
  5
8D
 10
10.286
 20
10.286
 30
108.0
 70
   192
  0
VERTEX
  8
04ZCOL05-MAIN
  5
8E
 10
-3.839
 20
-6.649
 30
48.857
 70
   192
  0
VERTEX
  8
04ZCOL05-MAIN
  5
8F
 10
-6.649
 20
-3.839
 30
48.857
 70
   192
  0
VERTEX
  8
04ZCOL05-MAIN
  5
90
 10
-6.554
 20
-3.784
 30
59.143
 70
   192
  0
VERTEX
  8
04ZCOL05-MAIN
  5
91
 10
-5.143
 20
-8.908
 30
0.0
 70
   192
  0
VERTEX
  8
04ZCOL05-MAIN
  5
92
 10
-8.908
 20
-5.143
 30
0.0
 70
   192
  0
VERTEX
  8
04ZCOL05-MAIN
  5
93
 10
-8.073
 20
-4.661
 30
7.456
 70
   192
  0
VERTEX
  8
04ZCOL05-MAIN
  5
94
 10
-8.684
 20
-5.014
 30
4.821
 70
   192
  0
VERTEX
  8
04ZCOL05-MAIN
  5
95
 10
-5.014
 20
-8.684
 30
4.821
 70
   192
  0
VERTEX
  8
04ZCOL05-MAIN
  5
96
 10
-8.908
 20
-5.143
 30
5.786
 70
   192
  0
VERTEX
  8
04ZCOL05-MAIN
  5
97
 10
-4.179
 20
-7.237
 30
3.857
 70
   192
  0
VERTEX
  8
04ZCOL05-MAIN
  5
98
 10
-4.661
 20
-8.073
 30
7.456
 70
   192
  0
VERTEX
  8
04ZCOL05-MAIN
  5
99
 10
-6.695
 20
-3.865
 30
8.554
 70
   192
  0
VERTEX
  8
04ZCOL05-MAIN
  5
9A
 10
-6.737
 20
-3.889
 30
8.438
 70
   192
  0
VERTEX
  8
04ZCOL05-MAIN
  5
9B
 10
-6.89
 20
-3.978
 30
8.261
 70
   192
  0
VERTEX
  8
04ZCOL05-MAIN
  5
9C
 10
-3.978
 20
-6.89
 30
8.261
 70
   192
  0
VERTEX
  8
04ZCOL05-MAIN
  5
9D
 10
-6.99
 20
-4.036
 30
8.213
 70
   192
  0
VERTEX
  8
04ZCOL05-MAIN
  5
9E
 10
-7.098
 20
-4.098
 30
8.196
 70
   192
  0
VERTEX
  8
04ZCOL05-MAIN
  5
9F
 10
-7.237
 20
-4.179
 30
7.714
 70
   192
  0
VERTEX
  8
04ZCOL05-MAIN
  5
A0
 10
-4.179
 20
-7.237
 30
7.714
 70
   192
  0
VERTEX
  8
04ZCOL05-MAIN
  5
A1
 10
-6.681
 20
-3.857
 30
38.571
 70
   192
  0
VERTEX
  8
04ZCOL05-MAIN
  5
A2
 10
-3.407
 20
-5.901
 30
90.0
 70
   192
  0
VERTEX
  8
04ZCOL05-MAIN
  5
A3
 10
-6.396
 20
-3.693
 30
69.429
 70
   192
  0
VERTEX
  8
04ZCOL05-MAIN
  5
A4
 10
-3.567
 20
-6.178
 30
79.714
 70
   192
  0
VERTEX
  8
04ZCOL05-MAIN
  5
A5
 10
-6.178
 20
-3.567
 30
79.714
 70
   192
  0
VERTEX
  8
04ZCOL05-MAIN
  5
A6
 10
-3.693
 20
-6.396
 30
69.429
 70
   192
  0
VERTEX
  8
04ZCOL05-MAIN
  5
A7
 10
-7.732
 20
-4.464
 30
104.571
 70
   192
  0
VERTEX
  8
04ZCOL05-MAIN
  5
A8
 10
-3.214
 20
-5.567
 30
97.251
 70
   192
  0
VERTEX
  8
04ZCOL05-MAIN
  5
A9
 10
-5.567
 20
-3.214
 30
100.286
 70
   192
  0
VERTEX
  8
04ZCOL05-MAIN
  5
AA
 10
-3.214
 20
-5.567
 30
100.286
 70
   192
  0
VERTEX
  8
04ZCOL05-MAIN
  5
AB
 10
-3.214
 20
-5.567
 30
102.88
 70
   192
  0
VERTEX
  8
04ZCOL05-MAIN
  5
AC
 10
-5.567
 20
-3.214
 30
102.88
 70
   192
  0
VERTEX
  8
04ZCOL05-MAIN
  5
AD
 10
-6.527
 20
-3.768
 30
99.964
 70
   192
  0
VERTEX
  8
04ZCOL05-MAIN
  5
AE
 10
-3.651
 20
-6.323
 30
100.2
 70
   192
  0
VERTEX
  8
04ZCOL05-MAIN
  5
AF
 10
-3.768
 20
-6.527
 30
99.964
 70
   192
  0
VERTEX
  8
04ZCOL05-MAIN
  5
B0
 10
-6.601
 20
-3.811
 30
99.643
 70
   192
  0
VERTEX
  8
04ZCOL05-MAIN
  5
B1
 10
-6.323
 20
-3.651
 30
99.086
 70
   192
  0
VERTEX
  8
04ZCOL05-MAIN
  5
B2
 10
-6.045
 20
-3.49
 30
99.0
 70
   192
  0
VERTEX
  8
04ZCOL05-MAIN
  5
B3
 10
-5.915
 20
-3.415
 30
98.978
 70
   192
  0
VERTEX
  8
04ZCOL05-MAIN
  5
B4
 10
-5.966
 20
-3.445
 30
98.92
 70
   192
  0
VERTEX
  8
04ZCOL05-MAIN
  5
B5
 10
-3.415
 20
-5.915
 30
98.978
 70
   192
  0
VERTEX
  8
04ZCOL05-MAIN
  5
B6
 10
-3.455
 20
-5.985
 30
98.839
 70
   192
  0
VERTEX
  8
04ZCOL05-MAIN
  5
B7
 10
-5.985
 20
-3.455
 30
98.839
 70
   192
  0
VERTEX
  8
04ZCOL05-MAIN
  5
B8
 10
-3.445
 20
-5.966
 30
98.759
 70
   192
  0
VERTEX
  8
04ZCOL05-MAIN
  5
B9
 10
-3.415
 20
-5.915
 30
98.7
 70
   192
  0
VERTEX
  8
04ZCOL05-MAIN
  5
BA
 10
-5.774
 20
-3.333
 30
98.668
 70
   192
  0
VERTEX
  8
04ZCOL05-MAIN
  5
BB
 10
-3.261
 20
-5.649
 30
98.584
 70
   192
  0
VERTEX
  8
04ZCOL05-MAIN
  5
BC
 10
-3.22
 20
-5.577
 30
98.44
 70
   192
  0
VERTEX
  8
04ZCOL05-MAIN
  5
BD
 10
-4.328
 20
-7.496
 30
104.216
 70
   192
  0
VERTEX
  8
04ZCOL05-MAIN
  5
BE
 10
-4.15
 20
-7.189
 30
103.944
 70
   192
  0
VERTEX
  8
04ZCOL05-MAIN
  5
BF
 10
-6.446
 20
-3.722
 30
103.714
 70
   192
  0
VERTEX
  8
04ZCOL05-MAIN
  5
C0
 10
-6.831
 20
-3.944
 30
103.773
 70
   192
  0
VERTEX
  8
04ZCOL05-MAIN
  5
C1
 10
-6.287
 20
-3.63
 30
103.714
 70
   192
  0
VERTEX
  8
04ZCOL05-MAIN
  5
C2
 10
-3.722
 20
-6.446
 30
103.714
 70
   192
  0
VERTEX
  8
04ZCOL05-MAIN
  5
C3
 10
-3.63
 20
-6.287
 30
103.714
 70
   192
  0
VERTEX
  8
04ZCOL05-MAIN
  5
C4
 10
-3.63
 20
-6.287
 30
103.448
 70
   192
  0
VERTEX
  8
04ZCOL05-MAIN
  5
C5
 10
-3.498
 20
-6.059
 30
103.448
 70
   192
  0
VERTEX
  8
04ZCOL05-MAIN
  5
C6
 10
-5.932
 20
-3.425
 30
103.428
 70
   192
  0
VERTEX
  8
04ZCOL05-MAIN
  5
C7
 10
-3.297
 20
-5.711
 30
103.281
 70
   192
  0
VERTEX
  8
04ZCOL05-MAIN
  5
C8
 10
-5.633
 20
-3.252
 30
103.164
 70
   192
  0
VERTEX
  8
04ZCOL05-MAIN
  5
C9
 10
-3.252
 20
-5.633
 30
103.164
 70
   192
  0
VERTEX
  8
04ZCOL05-MAIN
  5
CA
 10
-3.224
 20
-5.584
 30
103.027
 70
   192
  0
VERTEX
  8
04ZCOL05-MAIN
  5
CB
 10
-4.579
 20
-7.931
 30
105.429
 70
   192
  0
VERTEX
  8
04ZCOL05-MAIN
  5
CC
 10
-3.784
 20
-6.554
 30
59.143
 70
   192
  0
VERTEX
  8
04ZCOL05-MAIN
  5
CD
 10
0.0
 20
-7.714
 30
8.679
 70
   192
  0
VERTEX
  8
04ZCOL05-MAIN
  5
CE
 10
-5.143
 20
-8.908
 30
3.857
 70
   192
  0
VERTEX
  8
04ZCOL05-MAIN
  5
CF
 10
0.0
 20
-9.321
 30
7.456
 70
   192
  0
VERTEX
  8
04ZCOL05-MAIN
  5
D0
 10
0.0
 20
-10.286
 30
5.786
 70
   192
  0
VERTEX
  8
04ZCOL05-MAIN
  5
D1
 10
-4.661
 20
-8.073
 30
4.116
 70
   192
  0
VERTEX
  8
04ZCOL05-MAIN
  5
D2
 10
-5.014
 20
-8.684
 30
6.75
 70
   192
  0
VERTEX
  8
04ZCOL05-MAIN
  5
D3
 10
-5.143
 20
-8.908
 30
5.786
 70
   192
  0
VERTEX
  8
04ZCOL05-MAIN
  5
D4
 10
-3.865
 20
-6.695
 30
8.554
 70
   192
  0
VERTEX
  8
04ZCOL05-MAIN
  5
D5
 10
-3.857
 20
-6.681
 30
8.679
 70
   192
  0
VERTEX
  8
04ZCOL05-MAIN
  5
D6
 10
-3.889
 20
-6.737
 30
8.438
 70
   192
  0
VERTEX
  8
04ZCOL05-MAIN
  5
D7
 10
0.0
 20
-7.731
 30
8.554
 70
   192
  0
VERTEX
  8
04ZCOL05-MAIN
  5
D8
 10
0.0
 20
-7.856
 30
8.338
 70
   192
  0
VERTEX
  8
04ZCOL05-MAIN
  5
D9
 10
-3.928
 20
-6.803
 30
8.338
 70
   192
  0
VERTEX
  8
04ZCOL05-MAIN
  5
DA
 10
-4.036
 20
-6.99
 30
8.213
 70
   192
  0
VERTEX
  8
04ZCOL05-MAIN
  5
DB
 10
0.0
 20
-8.072
 30
8.213
 70
   192
  0
VERTEX
  8
04ZCOL05-MAIN
  5
DC
 10
-4.098
 20
-7.098
 30
7.714
 70
   192
  0
VERTEX
  8
04ZCOL05-MAIN
  5
DD
 10
0.0
 20
-8.196
 30
8.196
 70
   192
  0
VERTEX
  8
04ZCOL05-MAIN
  5
DE
 10
-4.098
 20
-7.098
 30
8.196
 70
   192
  0
VERTEX
  8
04ZCOL05-MAIN
  5
DF
 10
0.0
 20
-8.196
 30
7.714
 70
   192
  0
VERTEX
  8
04ZCOL05-MAIN
  5
E0
 10
0.0
 20
-7.678
 30
48.857
 70
   192
  0
VERTEX
  8
04ZCOL05-MAIN
  5
E1
 10
0.0
 20
-7.714
 30
38.571
 70
   192
  0
VERTEX
  8
04ZCOL05-MAIN
  5
E2
 10
-3.857
 20
-6.681
 30
38.571
 70
   192
  0
VERTEX
  8
04ZCOL05-MAIN
  5
E3
 10
-4.464
 20
-7.732
 30
104.571
 70
   192
  0
VERTEX
  8
04ZCOL05-MAIN
  5
E4
 10
0.0
 20
-6.429
 30
97.251
 70
   192
  0
VERTEX
  8
04ZCOL05-MAIN
  5
E5
 10
0.0
 20
-6.429
 30
102.88
 70
   192
  0
VERTEX
  8
04ZCOL05-MAIN
  5
E6
 10
-3.49
 20
-6.045
 30
100.286
 70
   192
  0
VERTEX
  8
04ZCOL05-MAIN
  5
E7
 10
0.0
 20
-7.301
 30
100.2
 70
   192
  0
VERTEX
  8
04ZCOL05-MAIN
  5
E8
 10
0.0
 20
-7.537
 30
99.964
 70
   192
  0
VERTEX
  8
04ZCOL05-MAIN
  5
E9
 10
-3.811
 20
-6.601
 30
99.643
 70
   192
  0
VERTEX
  8
04ZCOL05-MAIN
  5
EA
 10
0.0
 20
-7.623
 30
99.643
 70
   192
  0
VERTEX
  8
04ZCOL05-MAIN
  5
EB
 10
-3.768
 20
-6.527
 30
99.321
 70
   192
  0
VERTEX
  8
04ZCOL05-MAIN
  5
EC
 10
-3.651
 20
-6.323
 30
99.086
 70
   192
  0
VERTEX
  8
04ZCOL05-MAIN
  5
ED
 10
0.0
 20
-6.98
 30
99.0
 70
   192
  0
VERTEX
  8
04ZCOL05-MAIN
  5
EE
 10
-3.375
 20
-5.846
 30
99.0
 70
   192
  0
VERTEX
  8
04ZCOL05-MAIN
  5
EF
 10
-3.49
 20
-6.045
 30
99.0
 70
   192
  0
VERTEX
  8
04ZCOL05-MAIN
  5
F0
 10
0.0
 20
-6.889
 30
98.92
 70
   192
  0
VERTEX
  8
04ZCOL05-MAIN
  5
F1
 10
-3.445
 20
-5.966
 30
98.92
 70
   192
  0
VERTEX
  8
04ZCOL05-MAIN
  5
F2
 10
0.0
 20
-6.889
 30
98.759
 70
   192
  0
VERTEX
  8
04ZCOL05-MAIN
  5
F3
 10
0.0
 20
-6.83
 30
98.7
 70
   192
  0
VERTEX
  8
04ZCOL05-MAIN
  5
F4
 10
-3.375
 20
-5.846
 30
98.679
 70
   192
  0
VERTEX
  8
04ZCOL05-MAIN
  5
F5
 10
-3.333
 20
-5.774
 30
98.668
 70
   192
  0
VERTEX
  8
04ZCOL05-MAIN
  5
F6
 10
0.0
 20
-6.75
 30
98.679
 70
   192
  0
VERTEX
  8
04ZCOL05-MAIN
  5
F7
 10
0.0
 20
-6.667
 30
98.668
 70
   192
  0
VERTEX
  8
04ZCOL05-MAIN
  5
F8
 10
0.0
 20
-6.589
 30
98.636
 70
   192
  0
VERTEX
  8
04ZCOL05-MAIN
  5
F9
 10
-3.295
 20
-5.706
 30
98.636
 70
   192
  0
VERTEX
  8
04ZCOL05-MAIN
  5
FA
 10
-3.236
 20
-5.605
 30
98.518
 70
   192
  0
VERTEX
  8
04ZCOL05-MAIN
  5
FB
 10
0.0
 20
-6.44
 30
98.44
 70
   192
  0
VERTEX
  8
04ZCOL05-MAIN
  5
FC
 10
-3.214
 20
-5.567
 30
98.357
 70
   192
  0
VERTEX
  8
04ZCOL05-MAIN
  5
FD
 10
0.0
 20
-8.928
 30
104.571
 70
   192
  0
VERTEX
  8
04ZCOL05-MAIN
  5
FE
 10
-3.944
 20
-6.831
 30
103.773
 70
   192
  0
VERTEX
  8
04ZCOL05-MAIN
  5
FF
 10
0.0
 20
-8.301
 30
103.944
 70
   192
  0
VERTEX
  8
04ZCOL05-MAIN
  5
100
 10
0.0
 20
-7.26
 30
103.448
 70
   192
  0
VERTEX
  8
04ZCOL05-MAIN
  5
101
 10
0.0
 20
-7.26
 30
103.714
 70
   192
  0
VERTEX
  8
04ZCOL05-MAIN
  5
102
 10
0.0
 20
-6.997
 30
103.448
 70
   192
  0
VERTEX
  8
04ZCOL05-MAIN
  5
103
 10
-3.356
 20
-5.813
 30
103.372
 70
   192
  0
VERTEX
  8
04ZCOL05-MAIN
  5
104
 10
-3.425
 20
-5.932
 30
103.428
 70
   192
  0
VERTEX
  8
04ZCOL05-MAIN
  5
105
 10
0.0
 20
-6.595
 30
103.281
 70
   192
  0
VERTEX
  8
04ZCOL05-MAIN
  5
106
 10
0.0
 20
-6.505
 30
103.164
 70
   192
  0
VERTEX
  8
04ZCOL05-MAIN
  5
107
 10
0.0
 20
-6.448
 30
103.027
 70
   192
  0
VERTEX
  8
04ZCOL05-MAIN
  5
108
 10
0.0
 20
-9.158
 30
105.429
 70
   192
  0
VERTEX
  8
04ZCOL05-MAIN
  5
109
 10
-4.55
 20
-7.88
 30
104.985
 70
   192
  0
VERTEX
  8
04ZCOL05-MAIN
  5
10A
 10
3.784
 20
-6.554
 30
59.143
 70
   192
  0
VERTEX
  8
04ZCOL05-MAIN
  5
10B
 10
0.0
 20
-7.568
 30
59.143
 70
   192
  0
VERTEX
  8
04ZCOL05-MAIN
  5
10C
 10
3.857
 20
-6.681
 30
38.571
 70
   192
  0
VERTEX
  8
04ZCOL05-MAIN
  5
10D
 10
5.143
 20
-8.908
 30
3.857
 70
   192
  0
VERTEX
  8
04ZCOL05-MAIN
  5
10E
 10
0.0
 20
-10.286
 30
0.0
 70
   192
  0
VERTEX
  8
04ZCOL05-MAIN
  5
10F
 10
0.0
 20
-10.286
 30
3.857
 70
   192
  0
VERTEX
  8
04ZCOL05-MAIN
  5
110
 10
5.143
 20
-8.908
 30
5.786
 70
   192
  0
VERTEX
  8
04ZCOL05-MAIN
  5
111
 10
0.0
 20
-10.027
 30
4.821
 70
   192
  0
VERTEX
  8
04ZCOL05-MAIN
  5
112
 10
0.0
 20
-9.321
 30
4.116
 70
   192
  0
VERTEX
  8
04ZCOL05-MAIN
  5
113
 10
0.0
 20
-8.357
 30
3.857
 70
   192
  0
VERTEX
  8
04ZCOL05-MAIN
  5
114
 10
0.0
 20
-10.027
 30
6.75
 70
   192
  0
VERTEX
  8
04ZCOL05-MAIN
  5
115
 10
3.857
 20
-6.681
 30
8.679
 70
   192
  0
VERTEX
  8
04ZCOL05-MAIN
  5
116
 10
3.865
 20
-6.695
 30
8.554
 70
   192
  0
VERTEX
  8
04ZCOL05-MAIN
  5
117
 10
0.0
 20
-7.779
 30
8.438
 70
   192
  0
VERTEX
  8
04ZCOL05-MAIN
  5
118
 10
0.0
 20
-7.955
 30
8.261
 70
   192
  0
VERTEX
  8
04ZCOL05-MAIN
  5
119
 10
3.978
 20
-6.89
 30
8.261
 70
   192
  0
VERTEX
  8
04ZCOL05-MAIN
  5
11A
 10
4.036
 20
-6.99
 30
8.213
 70
   192
  0
VERTEX
  8
04ZCOL05-MAIN
  5
11B
 10
4.098
 20
-7.098
 30
8.196
 70
   192
  0
VERTEX
  8
04ZCOL05-MAIN
  5
11C
 10
0.0
 20
-8.357
 30
7.714
 70
   192
  0
VERTEX
  8
04ZCOL05-MAIN
  5
11D
 10
0.0
 20
-7.134
 30
79.714
 70
   192
  0
VERTEX
  8
04ZCOL05-MAIN
  5
11E
 10
0.0
 20
-6.814
 30
90.0
 70
   192
  0
VERTEX
  8
04ZCOL05-MAIN
  5
11F
 10
3.567
 20
-6.178
 30
79.714
 70
   192
  0
VERTEX
  8
04ZCOL05-MAIN
  5
120
 10
0.0
 20
-7.386
 30
69.429
 70
   192
  0
VERTEX
  8
04ZCOL05-MAIN
  5
121
 10
4.464
 20
-7.732
 30
104.571
 70
   192
  0
VERTEX
  8
04ZCOL05-MAIN
  5
122
 10
0.0
 20
-9.099
 30
104.985
 70
   192
  0
VERTEX
  8
04ZCOL05-MAIN
  5
123
 10
3.214
 20
-5.567
 30
100.286
 70
   192
  0
VERTEX
  8
04ZCOL05-MAIN
  5
124
 10
0.0
 20
-6.429
 30
100.286
 70
   192
  0
VERTEX
  8
04ZCOL05-MAIN
  5
125
 10
0.0
 20
-6.98
 30
100.286
 70
   192
  0
VERTEX
  8
04ZCOL05-MAIN
  5
126
 10
3.651
 20
-6.323
 30
100.2
 70
   192
  0
VERTEX
  8
04ZCOL05-MAIN
  5
127
 10
3.768
 20
-6.527
 30
99.964
 70
   192
  0
VERTEX
  8
04ZCOL05-MAIN
  5
128
 10
0.0
 20
-7.537
 30
99.321
 70
   192
  0
VERTEX
  8
04ZCOL05-MAIN
  5
129
 10
3.768
 20
-6.527
 30
99.321
 70
   192
  0
VERTEX
  8
04ZCOL05-MAIN
  5
12A
 10
0.0
 20
-7.301
 30
99.086
 70
   192
  0
VERTEX
  8
04ZCOL05-MAIN
  5
12B
 10
3.49
 20
-6.045
 30
99.0
 70
   192
  0
VERTEX
  8
04ZCOL05-MAIN
  5
12C
 10
3.651
 20
-6.323
 30
99.086
 70
   192
  0
VERTEX
  8
04ZCOL05-MAIN
  5
12D
 10
0.0
 20
-6.75
 30
99.0
 70
   192
  0
VERTEX
  8
04ZCOL05-MAIN
  5
12E
 10
3.375
 20
-5.846
 30
99.0
 70
   192
  0
VERTEX
  8
04ZCOL05-MAIN
  5
12F
 10
0.0
 20
-6.83
 30
98.978
 70
   192
  0
VERTEX
  8
04ZCOL05-MAIN
  5
130
 10
3.415
 20
-5.915
 30
98.978
 70
   192
  0
VERTEX
  8
04ZCOL05-MAIN
  5
131
 10
3.455
 20
-5.985
 30
98.839
 70
   192
  0
VERTEX
  8
04ZCOL05-MAIN
  5
132
 10
0.0
 20
-6.911
 30
98.839
 70
   192
  0
VERTEX
  8
04ZCOL05-MAIN
  5
133
 10
3.333
 20
-5.774
 30
98.668
 70
   192
  0
VERTEX
  8
04ZCOL05-MAIN
  5
134
 10
0.0
 20
-6.523
 30
98.584
 70
   192
  0
VERTEX
  8
04ZCOL05-MAIN
  5
135
 10
0.0
 20
-6.472
 30
98.518
 70
   192
  0
VERTEX
  8
04ZCOL05-MAIN
  5
136
 10
3.236
 20
-5.605
 30
98.518
 70
   192
  0
VERTEX
  8
04ZCOL05-MAIN
  5
137
 10
3.261
 20
-5.649
 30
98.584
 70
   192
  0
VERTEX
  8
04ZCOL05-MAIN
  5
138
 10
3.214
 20
-5.567
 30
98.357
 70
   192
  0
VERTEX
  8
04ZCOL05-MAIN
  5
139
 10
0.0
 20
-6.429
 30
98.357
 70
   192
  0
VERTEX
  8
04ZCOL05-MAIN
  5
13A
 10
4.328
 20
-7.496
 30
104.216
 70
   192
  0
VERTEX
  8
04ZCOL05-MAIN
  5
13B
 10
0.0
 20
-8.656
 30
104.216
 70
   192
  0
VERTEX
  8
04ZCOL05-MAIN
  5
13C
 10
0.0
 20
-7.887
 30
103.773
 70
   192
  0
VERTEX
  8
04ZCOL05-MAIN
  5
13D
 10
3.944
 20
-6.831
 30
103.773
 70
   192
  0
VERTEX
  8
04ZCOL05-MAIN
  5
13E
 10
0.0
 20
-7.444
 30
103.714
 70
   192
  0
VERTEX
  8
04ZCOL05-MAIN
  5
13F
 10
3.63
 20
-6.287
 30
103.448
 70
   192
  0
VERTEX
  8
04ZCOL05-MAIN
  5
140
 10
0.0
 20
-6.713
 30
103.372
 70
   192
  0
VERTEX
  8
04ZCOL05-MAIN
  5
141
 10
3.425
 20
-5.932
 30
103.428
 70
   192
  0
VERTEX
  8
04ZCOL05-MAIN
  5
142
 10
0.0
 20
-6.85
 30
103.428
 70
   192
  0
VERTEX
  8
04ZCOL05-MAIN
  5
143
 10
3.252
 20
-5.633
 30
103.164
 70
   192
  0
VERTEX
  8
04ZCOL05-MAIN
  5
144
 10
3.224
 20
-5.584
 30
103.027
 70
   192
  0
VERTEX
  8
04ZCOL05-MAIN
  5
145
 10
4.579
 20
-7.931
 30
105.429
 70
   192
  0
VERTEX
  8
04ZCOL05-MAIN
  5
146
 10
3.839
 20
-6.649
 30
48.857
 70
   192
  0
VERTEX
  8
04ZCOL05-MAIN
  5
147
 10
6.681
 20
-3.857
 30
38.571
 70
   192
  0
VERTEX
  8
04ZCOL05-MAIN
  5
148
 10
5.143
 20
-8.908
 30
0.0
 70
   192
  0
VERTEX
  8
04ZCOL05-MAIN
  5
149
 10
5.014
 20
-8.684
 30
4.821
 70
   192
  0
VERTEX
  8
04ZCOL05-MAIN
  5
14A
 10
4.661
 20
-8.073
 30
4.116
 70
   192
  0
VERTEX
  8
04ZCOL05-MAIN
  5
14B
 10
4.179
 20
-7.237
 30
3.857
 70
   192
  0
VERTEX
  8
04ZCOL05-MAIN
  5
14C
 10
8.073
 20
-4.661
 30
7.456
 70
   192
  0
VERTEX
  8
04ZCOL05-MAIN
  5
14D
 10
8.684
 20
-5.014
 30
6.75
 70
   192
  0
VERTEX
  8
04ZCOL05-MAIN
  5
14E
 10
4.661
 20
-8.073
 30
7.456
 70
   192
  0
VERTEX
  8
04ZCOL05-MAIN
  5
14F
 10
5.014
 20
-8.684
 30
6.75
 70
   192
  0
VERTEX
  8
04ZCOL05-MAIN
  5
150
 10
3.889
 20
-6.737
 30
8.438
 70
   192
  0
VERTEX
  8
04ZCOL05-MAIN
  5
151
 10
3.928
 20
-6.803
 30
8.338
 70
   192
  0
VERTEX
  8
04ZCOL05-MAIN
  5
152
 10
6.89
 20
-3.978
 30
8.261
 70
   192
  0
VERTEX
  8
04ZCOL05-MAIN
  5
153
 10
4.098
 20
-7.098
 30
7.714
 70
   192
  0
VERTEX
  8
04ZCOL05-MAIN
  5
154
 10
7.098
 20
-4.098
 30
7.714
 70
   192
  0
VERTEX
  8
04ZCOL05-MAIN
  5
155
 10
4.179
 20
-7.237
 30
7.714
 70
   192
  0
VERTEX
  8
04ZCOL05-MAIN
  5
156
 10
3.407
 20
-5.901
 30
90.0
 70
   192
  0
VERTEX
  8
04ZCOL05-MAIN
  5
157
 10
3.693
 20
-6.396
 30
69.429
 70
   192
  0
VERTEX
  8
04ZCOL05-MAIN
  5
158
 10
7.88
 20
-4.55
 30
104.985
 70
   192
  0
VERTEX
  8
04ZCOL05-MAIN
  5
159
 10
4.55
 20
-7.88
 30
104.985
 70
   192
  0
VERTEX
  8
04ZCOL05-MAIN
  5
15A
 10
3.214
 20
-5.567
 30
97.251
 70
   192
  0
VERTEX
  8
04ZCOL05-MAIN
  5
15B
 10
5.567
 20
-3.214
 30
102.88
 70
   192
  0
VERTEX
  8
04ZCOL05-MAIN
  5
15C
 10
5.567
 20
-3.214
 30
98.357
 70
   192
  0
VERTEX
  8
04ZCOL05-MAIN
  5
15D
 10
3.49
 20
-6.045
 30
100.286
 70
   192
  0
VERTEX
  8
04ZCOL05-MAIN
  5
15E
 10
6.527
 20
-3.768
 30
99.964
 70
   192
  0
VERTEX
  8
04ZCOL05-MAIN
  5
15F
 10
6.601
 20
-3.811
 30
99.643
 70
   192
  0
VERTEX
  8
04ZCOL05-MAIN
  5
160
 10
3.811
 20
-6.601
 30
99.643
 70
   192
  0
VERTEX
  8
04ZCOL05-MAIN
  5
161
 10
6.527
 20
-3.768
 30
99.321
 70
   192
  0
VERTEX
  8
04ZCOL05-MAIN
  5
162
 10
6.323
 20
-3.651
 30
99.086
 70
   192
  0
VERTEX
  8
04ZCOL05-MAIN
  5
163
 10
3.445
 20
-5.966
 30
98.92
 70
   192
  0
VERTEX
  8
04ZCOL05-MAIN
  5
164
 10
5.915
 20
-3.415
 30
98.978
 70
   192
  0
VERTEX
  8
04ZCOL05-MAIN
  5
165
 10
5.985
 20
-3.455
 30
98.839
 70
   192
  0
VERTEX
  8
04ZCOL05-MAIN
  5
166
 10
3.445
 20
-5.966
 30
98.759
 70
   192
  0
VERTEX
  8
04ZCOL05-MAIN
  5
167
 10
3.415
 20
-5.915
 30
98.7
 70
   192
  0
VERTEX
  8
04ZCOL05-MAIN
  5
168
 10
5.966
 20
-3.445
 30
98.759
 70
   192
  0
VERTEX
  8
04ZCOL05-MAIN
  5
169
 10
5.915
 20
-3.415
 30
98.7
 70
   192
  0
VERTEX
  8
04ZCOL05-MAIN
  5
16A
 10
5.774
 20
-3.333
 30
98.668
 70
   192
  0
VERTEX
  8
04ZCOL05-MAIN
  5
16B
 10
3.375
 20
-5.846
 30
98.679
 70
   192
  0
VERTEX
  8
04ZCOL05-MAIN
  5
16C
 10
3.295
 20
-5.706
 30
98.636
 70
   192
  0
VERTEX
  8
04ZCOL05-MAIN
  5
16D
 10
5.605
 20
-3.236
 30
98.518
 70
   192
  0
VERTEX
  8
04ZCOL05-MAIN
  5
16E
 10
3.22
 20
-5.577
 30
98.44
 70
   192
  0
VERTEX
  8
04ZCOL05-MAIN
  5
16F
 10
4.15
 20
-7.189
 30
103.944
 70
   192
  0
VERTEX
  8
04ZCOL05-MAIN
  5
170
 10
6.831
 20
-3.944
 30
103.773
 70
   192
  0
VERTEX
  8
04ZCOL05-MAIN
  5
171
 10
6.446
 20
-3.722
 30
103.714
 70
   192
  0
VERTEX
  8
04ZCOL05-MAIN
  5
172
 10
3.722
 20
-6.446
 30
103.714
 70
   192
  0
VERTEX
  8
04ZCOL05-MAIN
  5
173
 10
6.287
 20
-3.63
 30
103.714
 70
   192
  0
VERTEX
  8
04ZCOL05-MAIN
  5
174
 10
3.63
 20
-6.287
 30
103.714
 70
   192
  0
VERTEX
  8
04ZCOL05-MAIN
  5
175
 10
3.498
 20
-6.059
 30
103.448
 70
   192
  0
VERTEX
  8
04ZCOL05-MAIN
  5
176
 10
6.059
 20
-3.498
 30
103.448
 70
   192
  0
VERTEX
  8
04ZCOL05-MAIN
  5
177
 10
5.932
 20
-3.425
 30
103.428
 70
   192
  0
VERTEX
  8
04ZCOL05-MAIN
  5
178
 10
3.297
 20
-5.711
 30
103.281
 70
   192
  0
VERTEX
  8
04ZCOL05-MAIN
  5
179
 10
5.813
 20
-3.356
 30
103.372
 70
   192
  0
VERTEX
  8
04ZCOL05-MAIN
  5
17A
 10
3.356
 20
-5.813
 30
103.372
 70
   192
  0
VERTEX
  8
04ZCOL05-MAIN
  5
17B
 10
5.584
 20
-3.224
 30
103.027
 70
   192
  0
VERTEX
  8
04ZCOL05-MAIN
  5
17C
 10
3.214
 20
-5.567
 30
102.88
 70
   192
  0
VERTEX
  8
04ZCOL05-MAIN
  5
17D
 10
6.649
 20
-3.839
 30
48.857
 70
   192
  0
VERTEX
  8
04ZCOL05-MAIN
  5
17E
 10
6.554
 20
-3.784
 30
59.143
 70
   192
  0
VERTEX
  8
04ZCOL05-MAIN
  5
17F
 10
7.714
 20
0.0
 30
8.679
 70
   192
  0
VERTEX
  8
04ZCOL05-MAIN
  5
180
 10
6.681
 20
-3.857
 30
8.679
 70
   192
  0
VERTEX
  8
04ZCOL05-MAIN
  5
181
 10
8.908
 20
-5.143
 30
0.0
 70
   192
  0
VERTEX
  8
04ZCOL05-MAIN
  5
182
 10
9.321
 20
0.0
 30
7.456
 70
   192
  0
VERTEX
  8
04ZCOL05-MAIN
  5
183
 10
7.237
 20
-4.179
 30
7.714
 70
   192
  0
VERTEX
  8
04ZCOL05-MAIN
  5
184
 10
8.684
 20
-5.014
 30
4.821
 70
   192
  0
VERTEX
  8
04ZCOL05-MAIN
  5
185
 10
8.073
 20
-4.661
 30
4.116
 70
   192
  0
VERTEX
  8
04ZCOL05-MAIN
  5
186
 10
8.908
 20
-5.143
 30
3.857
 70
   192
  0
VERTEX
  8
04ZCOL05-MAIN
  5
187
 10
7.237
 20
-4.179
 30
3.857
 70
   192
  0
VERTEX
  8
04ZCOL05-MAIN
  5
188
 10
8.908
 20
-5.143
 30
5.786
 70
   192
  0
VERTEX
  8
04ZCOL05-MAIN
  5
189
 10
6.695
 20
-3.865
 30
8.554
 70
   192
  0
VERTEX
  8
04ZCOL05-MAIN
  5
18A
 10
6.737
 20
-3.889
 30
8.438
 70
   192
  0
VERTEX
  8
04ZCOL05-MAIN
  5
18B
 10
7.955
 20
0.0
 30
8.261
 70
   192
  0
VERTEX
  8
04ZCOL05-MAIN
  5
18C
 10
6.803
 20
-3.928
 30
8.338
 70
   192
  0
VERTEX
  8
04ZCOL05-MAIN
  5
18D
 10
6.99
 20
-4.036
 30
8.213
 70
   192
  0
VERTEX
  8
04ZCOL05-MAIN
  5
18E
 10
7.098
 20
-4.098
 30
8.196
 70
   192
  0
VERTEX
  8
04ZCOL05-MAIN
  5
18F
 10
8.196
 20
0.0
 30
8.196
 70
   192
  0
VERTEX
  8
04ZCOL05-MAIN
  5
190
 10
8.357
 20
0.0
 30
7.714
 70
   192
  0
VERTEX
  8
04ZCOL05-MAIN
  5
191
 10
7.714
 20
0.0
 30
38.571
 70
   192
  0
VERTEX
  8
04ZCOL05-MAIN
  5
192
 10
5.901
 20
-3.407
 30
90.0
 70
   192
  0
VERTEX
  8
04ZCOL05-MAIN
  5
193
 10
7.134
 20
0.0
 30
79.714
 70
   192
  0
VERTEX
  8
04ZCOL05-MAIN
  5
194
 10
6.178
 20
-3.567
 30
79.714
 70
   192
  0
VERTEX
  8
04ZCOL05-MAIN
  5
195
 10
6.396
 20
-3.693
 30
69.429
 70
   192
  0
VERTEX
  8
04ZCOL05-MAIN
  5
196
 10
8.928
 20
0.0
 30
104.571
 70
   192
  0
VERTEX
  8
04ZCOL05-MAIN
  5
197
 10
7.732
 20
-4.464
 30
104.571
 70
   192
  0
VERTEX
  8
04ZCOL05-MAIN
  5
198
 10
5.567
 20
-3.214
 30
97.251
 70
   192
  0
VERTEX
  8
04ZCOL05-MAIN
  5
199
 10
5.567
 20
-3.214
 30
100.286
 70
   192
  0
VERTEX
  8
04ZCOL05-MAIN
  5
19A
 10
6.045
 20
-3.49
 30
100.286
 70
   192
  0
VERTEX
  8
04ZCOL05-MAIN
  5
19B
 10
6.429
 20
0.0
 30
100.286
 70
   192
  0
VERTEX
  8
04ZCOL05-MAIN
  5
19C
 10
7.301
 20
0.0
 30
100.2
 70
   192
  0
VERTEX
  8
04ZCOL05-MAIN
  5
19D
 10
6.323
 20
-3.651
 30
100.2
 70
   192
  0
VERTEX
  8
04ZCOL05-MAIN
  5
19E
 10
7.623
 20
0.0
 30
99.643
 70
   192
  0
VERTEX
  8
04ZCOL05-MAIN
  5
19F
 10
7.301
 20
0.0
 30
99.086
 70
   192
  0
VERTEX
  8
04ZCOL05-MAIN
  5
1A0
 10
5.846
 20
-3.375
 30
99.0
 70
   192
  0
VERTEX
  8
04ZCOL05-MAIN
  5
1A1
 10
6.98
 20
0.0
 30
99.0
 70
   192
  0
VERTEX
  8
04ZCOL05-MAIN
  5
1A2
 10
6.045
 20
-3.49
 30
99.0
 70
   192
  0
VERTEX
  8
04ZCOL05-MAIN
  5
1A3
 10
6.83
 20
0.0
 30
98.978
 70
   192
  0
VERTEX
  8
04ZCOL05-MAIN
  5
1A4
 10
5.966
 20
-3.445
 30
98.92
 70
   192
  0
VERTEX
  8
04ZCOL05-MAIN
  5
1A5
 10
6.83
 20
0.0
 30
98.7
 70
   192
  0
VERTEX
  8
04ZCOL05-MAIN
  5
1A6
 10
5.846
 20
-3.375
 30
98.679
 70
   192
  0
VERTEX
  8
04ZCOL05-MAIN
  5
1A7
 10
6.75
 20
0.0
 30
98.679
 70
   192
  0
VERTEX
  8
04ZCOL05-MAIN
  5
1A8
 10
6.667
 20
0.0
 30
98.668
 70
   192
  0
VERTEX
  8
04ZCOL05-MAIN
  5
1A9
 10
5.649
 20
-3.261
 30
98.584
 70
   192
  0
VERTEX
  8
04ZCOL05-MAIN
  5
1AA
 10
5.706
 20
-3.295
 30
98.636
 70
   192
  0
VERTEX
  8
04ZCOL05-MAIN
  5
1AB
 10
5.577
 20
-3.22
 30
98.44
 70
   192
  0
VERTEX
  8
04ZCOL05-MAIN
  5
1AC
 10
6.472
 20
0.0
 30
98.518
 70
   192
  0
VERTEX
  8
04ZCOL05-MAIN
  5
1AD
 10
8.656
 20
0.0
 30
104.216
 70
   192
  0
VERTEX
  8
04ZCOL05-MAIN
  5
1AE
 10
7.496
 20
-4.328
 30
104.216
 70
   192
  0
VERTEX
  8
04ZCOL05-MAIN
  5
1AF
 10
7.189
 20
-4.15
 30
103.944
 70
   192
  0
VERTEX
  8
04ZCOL05-MAIN
  5
1B0
 10
7.887
 20
0.0
 30
103.773
 70
   192
  0
VERTEX
  8
04ZCOL05-MAIN
  5
1B1
 10
6.287
 20
-3.63
 30
103.448
 70
   192
  0
VERTEX
  8
04ZCOL05-MAIN
  5
1B2
 10
6.997
 20
0.0
 30
103.448
 70
   192
  0
VERTEX
  8
04ZCOL05-MAIN
  5
1B3
 10
6.85
 20
0.0
 30
103.428
 70
   192
  0
VERTEX
  8
04ZCOL05-MAIN
  5
1B4
 10
6.595
 20
0.0
 30
103.281
 70
   192
  0
VERTEX
  8
04ZCOL05-MAIN
  5
1B5
 10
5.633
 20
-3.252
 30
103.164
 70
   192
  0
VERTEX
  8
04ZCOL05-MAIN
  5
1B6
 10
5.711
 20
-3.297
 30
103.281
 70
   192
  0
VERTEX
  8
04ZCOL05-MAIN
  5
1B7
 10
6.429
 20
0.0
 30
102.88
 70
   192
  0
VERTEX
  8
04ZCOL05-MAIN
  5
1B8
 10
9.158
 20
0.0
 30
105.429
 70
   192
  0
VERTEX
  8
04ZCOL05-MAIN
  5
1B9
 10
7.931
 20
-4.579
 30
105.429
 70
   192
  0
VERTEX
  8
04ZCOL05-MAIN
  5
1BA
 10
7.678
 20
0.0
 30
48.857
 70
   192
  0
VERTEX
  8
04ZCOL05-MAIN
  5
1BB
 10
6.681
 20
3.857
 30
38.571
 70
   192
  0
VERTEX
  8
04ZCOL05-MAIN
  5
1BC
 10
10.286
 20
0.0
 30
0.0
 70
   192
  0
VERTEX
  8
04ZCOL05-MAIN
  5
1BD
 10
8.908
 20
5.143
 30
0.0
 70
   192
  0
VERTEX
  8
04ZCOL05-MAIN
  5
1BE
 10
8.908
 20
5.143
 30
3.857
 70
   192
  0
VERTEX
  8
04ZCOL05-MAIN
  5
1BF
 10
8.073
 20
4.661
 30
7.456
 70
   192
  0
VERTEX
  8
04ZCOL05-MAIN
  5
1C0
 10
10.027
 20
0.0
 30
4.821
 70
   192
  0
VERTEX
  8
04ZCOL05-MAIN
  5
1C1
 10
10.286
 20
0.0
 30
5.786
 70
   192
  0
VERTEX
  8
04ZCOL05-MAIN
  5
1C2
 10
8.684
 20
5.014
 30
4.821
 70
   192
  0
VERTEX
  8
04ZCOL05-MAIN
  5
1C3
 10
7.237
 20
4.179
 30
3.857
 70
   192
  0
VERTEX
  8
04ZCOL05-MAIN
  5
1C4
 10
8.073
 20
4.661
 30
4.116
 70
   192
  0
VERTEX
  8
04ZCOL05-MAIN
  5
1C5
 10
8.357
 20
0.0
 30
3.857
 70
   192
  0
VERTEX
  8
04ZCOL05-MAIN
  5
1C6
 10
9.321
 20
0.0
 30
4.116
 70
   192
  0
VERTEX
  8
04ZCOL05-MAIN
  5
1C7
 10
10.286
 20
0.0
 30
3.857
 70
   192
  0
VERTEX
  8
04ZCOL05-MAIN
  5
1C8
 10
10.027
 20
0.0
 30
6.75
 70
   192
  0
VERTEX
  8
04ZCOL05-MAIN
  5
1C9
 10
8.684
 20
5.014
 30
6.75
 70
   192
  0
VERTEX
  8
04ZCOL05-MAIN
  5
1CA
 10
6.681
 20
3.857
 30
8.679
 70
   192
  0
VERTEX
  8
04ZCOL05-MAIN
  5
1CB
 10
6.695
 20
3.865
 30
8.554
 70
   192
  0
VERTEX
  8
04ZCOL05-MAIN
  5
1CC
 10
7.731
 20
0.0
 30
8.554
 70
   192
  0
VERTEX
  8
04ZCOL05-MAIN
  5
1CD
 10
7.779
 20
0.0
 30
8.438
 70
   192
  0
VERTEX
  8
04ZCOL05-MAIN
  5
1CE
 10
7.856
 20
0.0
 30
8.338
 70
   192
  0
VERTEX
  8
04ZCOL05-MAIN
  5
1CF
 10
6.89
 20
3.978
 30
8.261
 70
   192
  0
VERTEX
  8
04ZCOL05-MAIN
  5
1D0
 10
8.072
 20
0.0
 30
8.213
 70
   192
  0
VERTEX
  8
04ZCOL05-MAIN
  5
1D1
 10
6.99
 20
4.036
 30
8.213
 70
   192
  0
VERTEX
  8
04ZCOL05-MAIN
  5
1D2
 10
7.098
 20
4.098
 30
7.714
 70
   192
  0
VERTEX
  8
04ZCOL05-MAIN
  5
1D3
 10
7.237
 20
4.179
 30
7.714
 70
   192
  0
VERTEX
  8
04ZCOL05-MAIN
  5
1D4
 10
8.196
 20
0.0
 30
7.714
 70
   192
  0
VERTEX
  8
04ZCOL05-MAIN
  5
1D5
 10
6.649
 20
3.839
 30
48.857
 70
   192
  0
VERTEX
  8
04ZCOL05-MAIN
  5
1D6
 10
6.178
 20
3.567
 30
79.714
 70
   192
  0
VERTEX
  8
04ZCOL05-MAIN
  5
1D7
 10
5.901
 20
3.407
 30
90.0
 70
   192
  0
VERTEX
  8
04ZCOL05-MAIN
  5
1D8
 10
6.814
 20
0.0
 30
90.0
 70
   192
  0
VERTEX
  8
04ZCOL05-MAIN
  5
1D9
 10
7.386
 20
0.0
 30
69.429
 70
   192
  0
VERTEX
  8
04ZCOL05-MAIN
  5
1DA
 10
7.568
 20
0.0
 30
59.143
 70
   192
  0
VERTEX
  8
04ZCOL05-MAIN
  5
1DB
 10
6.554
 20
3.784
 30
59.143
 70
   192
  0
VERTEX
  8
04ZCOL05-MAIN
  5
1DC
 10
6.396
 20
3.693
 30
69.429
 70
   192
  0
VERTEX
  8
04ZCOL05-MAIN
  5
1DD
 10
5.567
 20
3.214
 30
97.251
 70
   192
  0
VERTEX
  8
04ZCOL05-MAIN
  5
1DE
 10
5.567
 20
3.214
 30
102.88
 70
   192
  0
VERTEX
  8
04ZCOL05-MAIN
  5
1DF
 10
5.567
 20
3.214
 30
100.286
 70
   192
  0
VERTEX
  8
04ZCOL05-MAIN
  5
1E0
 10
6.429
 20
0.0
 30
97.251
 70
   192
  0
VERTEX
  8
04ZCOL05-MAIN
  5
1E1
 10
6.429
 20
0.0
 30
98.357
 70
   192
  0
VERTEX
  8
04ZCOL05-MAIN
  5
1E2
 10
6.98
 20
0.0
 30
100.286
 70
   192
  0
VERTEX
  8
04ZCOL05-MAIN
  5
1E3
 10
6.045
 20
3.49
 30
100.286
 70
   192
  0
VERTEX
  8
04ZCOL05-MAIN
  5
1E4
 10
7.537
 20
0.0
 30
99.964
 70
   192
  0
VERTEX
  8
04ZCOL05-MAIN
  5
1E5
 10
6.527
 20
3.768
 30
99.321
 70
   192
  0
VERTEX
  8
04ZCOL05-MAIN
  5
1E6
 10
6.601
 20
3.811
 30
99.643
 70
   192
  0
VERTEX
  8
04ZCOL05-MAIN
  5
1E7
 10
7.537
 20
0.0
 30
99.321
 70
   192
  0
VERTEX
  8
04ZCOL05-MAIN
  5
1E8
 10
6.323
 20
3.651
 30
99.086
 70
   192
  0
VERTEX
  8
04ZCOL05-MAIN
  5
1E9
 10
6.045
 20
3.49
 30
99.0
 70
   192
  0
VERTEX
  8
04ZCOL05-MAIN
  5
1EA
 10
5.915
 20
3.415
 30
98.978
 70
   192
  0
VERTEX
  8
04ZCOL05-MAIN
  5
1EB
 10
5.846
 20
3.375
 30
99.0
 70
   192
  0
VERTEX
  8
04ZCOL05-MAIN
  5
1EC
 10
6.75
 20
0.0
 30
99.0
 70
   192
  0
VERTEX
  8
04ZCOL05-MAIN
  5
1ED
 10
6.889
 20
0.0
 30
98.92
 70
   192
  0
VERTEX
  8
04ZCOL05-MAIN
  5
1EE
 10
6.911
 20
0.0
 30
98.839
 70
   192
  0
VERTEX
  8
04ZCOL05-MAIN
  5
1EF
 10
6.889
 20
0.0
 30
98.759
 70
   192
  0
VERTEX
  8
04ZCOL05-MAIN
  5
1F0
 10
5.846
 20
3.375
 30
98.679
 70
   192
  0
VERTEX
  8
04ZCOL05-MAIN
  5
1F1
 10
5.706
 20
3.295
 30
98.636
 70
   192
  0
VERTEX
  8
04ZCOL05-MAIN
  5
1F2
 10
6.589
 20
0.0
 30
98.636
 70
   192
  0
VERTEX
  8
04ZCOL05-MAIN
  5
1F3
 10
5.605
 20
3.236
 30
98.518
 70
   192
  0
VERTEX
  8
04ZCOL05-MAIN
  5
1F4
 10
6.523
 20
0.0
 30
98.584
 70
   192
  0
VERTEX
  8
04ZCOL05-MAIN
  5
1F5
 10
6.44
 20
0.0
 30
98.44
 70
   192
  0
VERTEX
  8
04ZCOL05-MAIN
  5
1F6
 10
5.567
 20
3.214
 30
98.357
 70
   192
  0
VERTEX
  8
04ZCOL05-MAIN
  5
1F7
 10
7.732
 20
4.464
 30
104.571
 70
   192
  0
VERTEX
  8
04ZCOL05-MAIN
  5
1F8
 10
8.301
 20
0.0
 30
103.944
 70
   192
  0
VERTEX
  8
04ZCOL05-MAIN
  5
1F9
 10
7.496
 20
4.328
 30
104.216
 70
   192
  0
VERTEX
  8
04ZCOL05-MAIN
  5
1FA
 10
6.831
 20
3.944
 30
103.773
 70
   192
  0
VERTEX
  8
04ZCOL05-MAIN
  5
1FB
 10
6.446
 20
3.722
 30
103.714
 70
   192
  0
VERTEX
  8
04ZCOL05-MAIN
  5
1FC
 10
7.444
 20
0.0
 30
103.714
 70
   192
  0
VERTEX
  8
04ZCOL05-MAIN
  5
1FD
 10
6.287
 20
3.63
 30
103.714
 70
   192
  0
VERTEX
  8
04ZCOL05-MAIN
  5
1FE
 10
7.26
 20
0.0
 30
103.714
 70
   192
  0
VERTEX
  8
04ZCOL05-MAIN
  5
1FF
 10
7.26
 20
0.0
 30
103.448
 70
   192
  0
VERTEX
  8
04ZCOL05-MAIN
  5
200
 10
6.713
 20
0.0
 30
103.372
 70
   192
  0
VERTEX
  8
04ZCOL05-MAIN
  5
201
 10
6.505
 20
0.0
 30
103.164
 70
   192
  0
VERTEX
  8
04ZCOL05-MAIN
  5
202
 10
6.448
 20
0.0
 30
103.027
 70
   192
  0
VERTEX
  8
04ZCOL05-MAIN
  5
203
 10
9.099
 20
0.0
 30
104.985
 70
   192
  0
VERTEX
  8
04ZCOL05-MAIN
  5
204
 10
5.143
 20
8.908
 30
5.786
 70
   192
  0
VERTEX
  8
04ZCOL05-MAIN
  5
205
 10
5.014
 20
8.684
 30
4.821
 70
   192
  0
VERTEX
  8
04ZCOL05-MAIN
  5
206
 10
8.908
 20
5.143
 30
5.786
 70
   192
  0
VERTEX
  8
04ZCOL05-MAIN
  5
207
 10
4.661
 20
8.073
 30
4.116
 70
   192
  0
VERTEX
  8
04ZCOL05-MAIN
  5
208
 10
4.179
 20
7.237
 30
3.857
 70
   192
  0
VERTEX
  8
04ZCOL05-MAIN
  5
209
 10
5.014
 20
8.684
 30
6.75
 70
   192
  0
VERTEX
  8
04ZCOL05-MAIN
  5
20A
 10
6.737
 20
3.889
 30
8.438
 70
   192
  0
VERTEX
  8
04ZCOL05-MAIN
  5
20B
 10
3.865
 20
6.695
 30
8.554
 70
   192
  0
VERTEX
  8
04ZCOL05-MAIN
  5
20C
 10
3.889
 20
6.737
 30
8.438
 70
   192
  0
VERTEX
  8
04ZCOL05-MAIN
  5
20D
 10
6.803
 20
3.928
 30
8.338
 70
   192
  0
VERTEX
  8
04ZCOL05-MAIN
  5
20E
 10
7.098
 20
4.098
 30
8.196
 70
   192
  0
VERTEX
  8
04ZCOL05-MAIN
  5
20F
 10
4.098
 20
7.098
 30
7.714
 70
   192
  0
VERTEX
  8
04ZCOL05-MAIN
  5
210
 10
3.214
 20
5.567
 30
100.286
 70
   192
  0
VERTEX
  8
04ZCOL05-MAIN
  5
211
 10
3.49
 20
6.045
 30
100.286
 70
   192
  0
VERTEX
  8
04ZCOL05-MAIN
  5
212
 10
6.323
 20
3.651
 30
100.2
 70
   192
  0
VERTEX
  8
04ZCOL05-MAIN
  5
213
 10
3.768
 20
6.527
 30
99.964
 70
   192
  0
VERTEX
  8
04ZCOL05-MAIN
  5
214
 10
6.527
 20
3.768
 30
99.964
 70
   192
  0
VERTEX
  8
04ZCOL05-MAIN
  5
215
 10
3.768
 20
6.527
 30
99.321
 70
   192
  0
VERTEX
  8
04ZCOL05-MAIN
  5
216
 10
3.49
 20
6.045
 30
99.0
 70
   192
  0
VERTEX
  8
04ZCOL05-MAIN
  5
217
 10
3.415
 20
5.915
 30
98.978
 70
   192
  0
VERTEX
  8
04ZCOL05-MAIN
  5
218
 10
3.375
 20
5.846
 30
99.0
 70
   192
  0
VERTEX
  8
04ZCOL05-MAIN
  5
219
 10
5.966
 20
3.445
 30
98.92
 70
   192
  0
VERTEX
  8
04ZCOL05-MAIN
  5
21A
 10
5.985
 20
3.455
 30
98.839
 70
   192
  0
VERTEX
  8
04ZCOL05-MAIN
  5
21B
 10
5.966
 20
3.445
 30
98.759
 70
   192
  0
VERTEX
  8
04ZCOL05-MAIN
  5
21C
 10
5.915
 20
3.415
 30
98.7
 70
   192
  0
VERTEX
  8
04ZCOL05-MAIN
  5
21D
 10
3.333
 20
5.774
 30
98.668
 70
   192
  0
VERTEX
  8
04ZCOL05-MAIN
  5
21E
 10
5.774
 20
3.333
 30
98.668
 70
   192
  0
VERTEX
  8
04ZCOL05-MAIN
  5
21F
 10
3.295
 20
5.706
 30
98.636
 70
   192
  0
VERTEX
  8
04ZCOL05-MAIN
  5
220
 10
3.236
 20
5.605
 30
98.518
 70
   192
  0
VERTEX
  8
04ZCOL05-MAIN
  5
221
 10
5.649
 20
3.261
 30
98.584
 70
   192
  0
VERTEX
  8
04ZCOL05-MAIN
  5
222
 10
5.577
 20
3.22
 30
98.44
 70
   192
  0
VERTEX
  8
04ZCOL05-MAIN
  5
223
 10
3.22
 20
5.577
 30
98.44
 70
   192
  0
VERTEX
  8
04ZCOL05-MAIN
  5
224
 10
7.189
 20
4.15
 30
103.944
 70
   192
  0
VERTEX
  8
04ZCOL05-MAIN
  5
225
 10
4.15
 20
7.189
 30
103.944
 70
   192
  0
VERTEX
  8
04ZCOL05-MAIN
  5
226
 10
3.722
 20
6.446
 30
103.714
 70
   192
  0
VERTEX
  8
04ZCOL05-MAIN
  5
227
 10
6.287
 20
3.63
 30
103.448
 70
   192
  0
VERTEX
  8
04ZCOL05-MAIN
  5
228
 10
3.63
 20
6.287
 30
103.714
 70
   192
  0
VERTEX
  8
04ZCOL05-MAIN
  5
229
 10
3.63
 20
6.287
 30
103.448
 70
   192
  0
VERTEX
  8
04ZCOL05-MAIN
  5
22A
 10
6.059
 20
3.498
 30
103.448
 70
   192
  0
VERTEX
  8
04ZCOL05-MAIN
  5
22B
 10
3.425
 20
5.932
 30
103.428
 70
   192
  0
VERTEX
  8
04ZCOL05-MAIN
  5
22C
 10
3.498
 20
6.059
 30
103.448
 70
   192
  0
VERTEX
  8
04ZCOL05-MAIN
  5
22D
 10
5.932
 20
3.425
 30
103.428
 70
   192
  0
VERTEX
  8
04ZCOL05-MAIN
  5
22E
 10
3.356
 20
5.813
 30
103.372
 70
   192
  0
VERTEX
  8
04ZCOL05-MAIN
  5
22F
 10
5.711
 20
3.297
 30
103.281
 70
   192
  0
VERTEX
  8
04ZCOL05-MAIN
  5
230
 10
5.813
 20
3.356
 30
103.372
 70
   192
  0
VERTEX
  8
04ZCOL05-MAIN
  5
231
 10
3.297
 20
5.711
 30
103.281
 70
   192
  0
VERTEX
  8
04ZCOL05-MAIN
  5
232
 10
3.252
 20
5.633
 30
103.164
 70
   192
  0
VERTEX
  8
04ZCOL05-MAIN
  5
233
 10
5.633
 20
3.252
 30
103.164
 70
   192
  0
VERTEX
  8
04ZCOL05-MAIN
  5
234
 10
5.584
 20
3.224
 30
103.027
 70
   192
  0
VERTEX
  8
04ZCOL05-MAIN
  5
235
 10
3.224
 20
5.584
 30
103.027
 70
   192
  0
VERTEX
  8
04ZCOL05-MAIN
  5
236
 10
7.88
 20
4.55
 30
104.985
 70
   192
  0
VERTEX
  8
04ZCOL05-MAIN
  5
237
 10
7.931
 20
4.579
 30
105.429
 70
   192
  0
VERTEX
  8
04ZCOL05-MAIN
  5
238
 10
0.0
 20
7.678
 30
48.857
 70
   192
  0
VERTEX
  8
04ZCOL05-MAIN
  5
239
 10
3.839
 20
6.649
 30
48.857
 70
   192
  0
VERTEX
  8
04ZCOL05-MAIN
  5
23A
 10
0.0
 20
7.714
 30
8.679
 70
   192
  0
VERTEX
  8
04ZCOL05-MAIN
  5
23B
 10
3.857
 20
6.681
 30
8.679
 70
   192
  0
VERTEX
  8
04ZCOL05-MAIN
  5
23C
 10
0.0
 20
10.286
 30
0.0
 70
   192
  0
VERTEX
  8
04ZCOL05-MAIN
  5
23D
 10
5.143
 20
8.908
 30
0.0
 70
   192
  0
VERTEX
  8
04ZCOL05-MAIN
  5
23E
 10
4.661
 20
8.073
 30
7.456
 70
   192
  0
VERTEX
  8
04ZCOL05-MAIN
  5
23F
 10
4.179
 20
7.237
 30
7.714
 70
   192
  0
VERTEX
  8
04ZCOL05-MAIN
  5
240
 10
0.0
 20
10.027
 30
4.821
 70
   192
  0
VERTEX
  8
04ZCOL05-MAIN
  5
241
 10
0.0
 20
9.321
 30
4.116
 70
   192
  0
VERTEX
  8
04ZCOL05-MAIN
  5
242
 10
5.143
 20
8.908
 30
3.857
 70
   192
  0
VERTEX
  8
04ZCOL05-MAIN
  5
243
 10
0.0
 20
10.286
 30
3.857
 70
   192
  0
VERTEX
  8
04ZCOL05-MAIN
  5
244
 10
0.0
 20
10.027
 30
6.75
 70
   192
  0
VERTEX
  8
04ZCOL05-MAIN
  5
245
 10
0.0
 20
10.286
 30
5.786
 70
   192
  0
VERTEX
  8
04ZCOL05-MAIN
  5
246
 10
0.0
 20
7.731
 30
8.554
 70
   192
  0
VERTEX
  8
04ZCOL05-MAIN
  5
247
 10
3.978
 20
6.89
 30
8.261
 70
   192
  0
VERTEX
  8
04ZCOL05-MAIN
  5
248
 10
3.928
 20
6.803
 30
8.338
 70
   192
  0
VERTEX
  8
04ZCOL05-MAIN
  5
249
 10
4.036
 20
6.99
 30
8.213
 70
   192
  0
VERTEX
  8
04ZCOL05-MAIN
  5
24A
 10
0.0
 20
8.196
 30
7.714
 70
   192
  0
VERTEX
  8
04ZCOL05-MAIN
  5
24B
 10
0.0
 20
8.196
 30
8.196
 70
   192
  0
VERTEX
  8
04ZCOL05-MAIN
  5
24C
 10
4.098
 20
7.098
 30
8.196
 70
   192
  0
VERTEX
  8
04ZCOL05-MAIN
  5
24D
 10
3.857
 20
6.681
 30
38.571
 70
   192
  0
VERTEX
  8
04ZCOL05-MAIN
  5
24E
 10
0.0
 20
7.134
 30
79.714
 70
   192
  0
VERTEX
  8
04ZCOL05-MAIN
  5
24F
 10
3.693
 20
6.396
 30
69.429
 70
   192
  0
VERTEX
  8
04ZCOL05-MAIN
  5
250
 10
3.567
 20
6.178
 30
79.714
 70
   192
  0
VERTEX
  8
04ZCOL05-MAIN
  5
251
 10
0.0
 20
7.386
 30
69.429
 70
   192
  0
VERTEX
  8
04ZCOL05-MAIN
  5
252
 10
0.0
 20
7.568
 30
59.143
 70
   192
  0
VERTEX
  8
04ZCOL05-MAIN
  5
253
 10
3.784
 20
6.554
 30
59.143
 70
   192
  0
VERTEX
  8
04ZCOL05-MAIN
  5
254
 10
0.0
 20
9.099
 30
104.985
 70
   192
  0
VERTEX
  8
04ZCOL05-MAIN
  5
255
 10
0.0
 20
8.928
 30
104.571
 70
   192
  0
VERTEX
  8
04ZCOL05-MAIN
  5
256
 10
4.464
 20
7.732
 30
104.571
 70
   192
  0
VERTEX
  8
04ZCOL05-MAIN
  5
257
 10
4.55
 20
7.88
 30
104.985
 70
   192
  0
VERTEX
  8
04ZCOL05-MAIN
  5
258
 10
3.407
 20
5.901
 30
90.0
 70
   192
  0
VERTEX
  8
04ZCOL05-MAIN
  5
259
 10
3.214
 20
5.567
 30
97.251
 70
   192
  0
VERTEX
  8
04ZCOL05-MAIN
  5
25A
 10
0.0
 20
6.429
 30
100.286
 70
   192
  0
VERTEX
  8
04ZCOL05-MAIN
  5
25B
 10
3.651
 20
6.323
 30
100.2
 70
   192
  0
VERTEX
  8
04ZCOL05-MAIN
  5
25C
 10
0.0
 20
7.537
 30
99.964
 70
   192
  0
VERTEX
  8
04ZCOL05-MAIN
  5
25D
 10
3.811
 20
6.601
 30
99.643
 70
   192
  0
VERTEX
  8
04ZCOL05-MAIN
  5
25E
 10
0.0
 20
7.623
 30
99.643
 70
   192
  0
VERTEX
  8
04ZCOL05-MAIN
  5
25F
 10
0.0
 20
7.301
 30
99.086
 70
   192
  0
VERTEX
  8
04ZCOL05-MAIN
  5
260
 10
3.651
 20
6.323
 30
99.086
 70
   192
  0
VERTEX
  8
04ZCOL05-MAIN
  5
261
 10
0.0
 20
6.98
 30
99.0
 70
   192
  0
VERTEX
  8
04ZCOL05-MAIN
  5
262
 10
0.0
 20
6.83
 30
98.978
 70
   192
  0
VERTEX
  8
04ZCOL05-MAIN
  5
263
 10
3.455
 20
5.985
 30
98.839
 70
   192
  0
VERTEX
  8
04ZCOL05-MAIN
  5
264
 10
3.445
 20
5.966
 30
98.92
 70
   192
  0
VERTEX
  8
04ZCOL05-MAIN
  5
265
 10
0.0
 20
6.83
 30
98.7
 70
   192
  0
VERTEX
  8
04ZCOL05-MAIN
  5
266
 10
3.445
 20
5.966
 30
98.759
 70
   192
  0
VERTEX
  8
04ZCOL05-MAIN
  5
267
 10
3.375
 20
5.846
 30
98.679
 70
   192
  0
VERTEX
  8
04ZCOL05-MAIN
  5
268
 10
3.415
 20
5.915
 30
98.7
 70
   192
  0
VERTEX
  8
04ZCOL05-MAIN
  5
269
 10
0.0
 20
6.75
 30
98.679
 70
   192
  0
VERTEX
  8
04ZCOL05-MAIN
  5
26A
 10
0.0
 20
6.667
 30
98.668
 70
   192
  0
VERTEX
  8
04ZCOL05-MAIN
  5
26B
 10
3.261
 20
5.649
 30
98.584
 70
   192
  0
VERTEX
  8
04ZCOL05-MAIN
  5
26C
 10
0.0
 20
6.589
 30
98.636
 70
   192
  0
VERTEX
  8
04ZCOL05-MAIN
  5
26D
 10
0.0
 20
6.44
 30
98.44
 70
   192
  0
VERTEX
  8
04ZCOL05-MAIN
  5
26E
 10
3.214
 20
5.567
 30
98.357
 70
   192
  0
VERTEX
  8
04ZCOL05-MAIN
  5
26F
 10
4.328
 20
7.496
 30
104.216
 70
   192
  0
VERTEX
  8
04ZCOL05-MAIN
  5
270
 10
0.0
 20
8.301
 30
103.944
 70
   192
  0
VERTEX
  8
04ZCOL05-MAIN
  5
271
 10
0.0
 20
7.887
 30
103.773
 70
   192
  0
VERTEX
  8
04ZCOL05-MAIN
  5
272
 10
3.944
 20
6.831
 30
103.773
 70
   192
  0
VERTEX
  8
04ZCOL05-MAIN
  5
273
 10
3.214
 20
5.567
 30
102.88
 70
   192
  0
VERTEX
  8
04ZCOL05-MAIN
  5
274
 10
0.0
 20
9.158
 30
105.429
 70
   192
  0
VERTEX
  8
04ZCOL05-MAIN
  5
275
 10
4.579
 20
7.931
 30
105.429
 70
   192
  0
VERTEX
  8
04ZCOL05-MAIN
  5
276
 10
-3.857
 20
6.681
 30
38.571
 70
   192
  0
VERTEX
  8
04ZCOL05-MAIN
  5
277
 10
-5.143
 20
8.908
 30
0.0
 70
   192
  0
VERTEX
  8
04ZCOL05-MAIN
  5
278
 10
-5.143
 20
8.908
 30
3.857
 70
   192
  0
VERTEX
  8
04ZCOL05-MAIN
  5
279
 10
-4.661
 20
8.073
 30
7.456
 70
   192
  0
VERTEX
  8
04ZCOL05-MAIN
  5
27A
 10
0.0
 20
8.357
 30
3.857
 70
   192
  0
VERTEX
  8
04ZCOL05-MAIN
  5
27B
 10
0.0
 20
9.321
 30
7.456
 70
   192
  0
VERTEX
  8
04ZCOL05-MAIN
  5
27C
 10
-3.857
 20
6.681
 30
8.679
 70
   192
  0
VERTEX
  8
04ZCOL05-MAIN
  5
27D
 10
0.0
 20
7.779
 30
8.438
 70
   192
  0
VERTEX
  8
04ZCOL05-MAIN
  5
27E
 10
0.0
 20
7.856
 30
8.338
 70
   192
  0
VERTEX
  8
04ZCOL05-MAIN
  5
27F
 10
-3.928
 20
6.803
 30
8.338
 70
   192
  0
VERTEX
  8
04ZCOL05-MAIN
  5
280
 10
0.0
 20
7.955
 30
8.261
 70
   192
  0
VERTEX
  8
04ZCOL05-MAIN
  5
281
 10
-4.036
 20
6.99
 30
8.213
 70
   192
  0
VERTEX
  8
04ZCOL05-MAIN
  5
282
 10
0.0
 20
8.072
 30
8.213
 70
   192
  0
VERTEX
  8
04ZCOL05-MAIN
  5
283
 10
0.0
 20
8.357
 30
7.714
 70
   192
  0
VERTEX
  8
04ZCOL05-MAIN
  5
284
 10
0.0
 20
7.714
 30
38.571
 70
   192
  0
VERTEX
  8
04ZCOL05-MAIN
  5
285
 10
-3.407
 20
5.901
 30
90.0
 70
   192
  0
VERTEX
  8
04ZCOL05-MAIN
  5
286
 10
-3.693
 20
6.396
 30
69.429
 70
   192
  0
VERTEX
  8
04ZCOL05-MAIN
  5
287
 10
-4.55
 20
7.88
 30
104.985
 70
   192
  0
VERTEX
  8
04ZCOL05-MAIN
  5
288
 10
-3.214
 20
5.567
 30
97.251
 70
   192
  0
VERTEX
  8
04ZCOL05-MAIN
  5
289
 10
0.0
 20
6.814
 30
90.0
 70
   192
  0
VERTEX
  8
04ZCOL05-MAIN
  5
28A
 10
-3.214
 20
5.567
 30
102.88
 70
   192
  0
VERTEX
  8
04ZCOL05-MAIN
  5
28B
 10
0.0
 20
6.429
 30
102.88
 70
   192
  0
VERTEX
  8
04ZCOL05-MAIN
  5
28C
 10
0.0
 20
6.429
 30
97.251
 70
   192
  0
VERTEX
  8
04ZCOL05-MAIN
  5
28D
 10
0.0
 20
6.429
 30
98.357
 70
   192
  0
VERTEX
  8
04ZCOL05-MAIN
  5
28E
 10
0.0
 20
6.98
 30
100.286
 70
   192
  0
VERTEX
  8
04ZCOL05-MAIN
  5
28F
 10
0.0
 20
7.301
 30
100.2
 70
   192
  0
VERTEX
  8
04ZCOL05-MAIN
  5
290
 10
-3.651
 20
6.323
 30
100.2
 70
   192
  0
VERTEX
  8
04ZCOL05-MAIN
  5
291
 10
-3.49
 20
6.045
 30
100.286
 70
   192
  0
VERTEX
  8
04ZCOL05-MAIN
  5
292
 10
-3.768
 20
6.527
 30
99.964
 70
   192
  0
VERTEX
  8
04ZCOL05-MAIN
  5
293
 10
0.0
 20
7.537
 30
99.321
 70
   192
  0
VERTEX
  8
04ZCOL05-MAIN
  5
294
 10
-3.651
 20
6.323
 30
99.086
 70
   192
  0
VERTEX
  8
04ZCOL05-MAIN
  5
295
 10
0.0
 20
6.75
 30
99.0
 70
   192
  0
VERTEX
  8
04ZCOL05-MAIN
  5
296
 10
-3.49
 20
6.045
 30
99.0
 70
   192
  0
VERTEX
  8
04ZCOL05-MAIN
  5
297
 10
0.0
 20
6.889
 30
98.92
 70
   192
  0
VERTEX
  8
04ZCOL05-MAIN
  5
298
 10
0.0
 20
6.911
 30
98.839
 70
   192
  0
VERTEX
  8
04ZCOL05-MAIN
  5
299
 10
0.0
 20
6.889
 30
98.759
 70
   192
  0
VERTEX
  8
04ZCOL05-MAIN
  5
29A
 10
-3.375
 20
5.846
 30
98.679
 70
   192
  0
VERTEX
  8
04ZCOL05-MAIN
  5
29B
 10
0.0
 20
6.523
 30
98.584
 70
   192
  0
VERTEX
  8
04ZCOL05-MAIN
  5
29C
 10
-3.236
 20
5.605
 30
98.518
 70
   192
  0
VERTEX
  8
04ZCOL05-MAIN
  5
29D
 10
0.0
 20
6.472
 30
98.518
 70
   192
  0
VERTEX
  8
04ZCOL05-MAIN
  5
29E
 10
-3.22
 20
5.577
 30
98.44
 70
   192
  0
VERTEX
  8
04ZCOL05-MAIN
  5
29F
 10
0.0
 20
8.656
 30
104.216
 70
   192
  0
VERTEX
  8
04ZCOL05-MAIN
  5
2A0
 10
-3.722
 20
6.446
 30
103.714
 70
   192
  0
VERTEX
  8
04ZCOL05-MAIN
  5
2A1
 10
-3.63
 20
6.287
 30
103.714
 70
   192
  0
VERTEX
  8
04ZCOL05-MAIN
  5
2A2
 10
0.0
 20
7.26
 30
103.714
 70
   192
  0
VERTEX
  8
04ZCOL05-MAIN
  5
2A3
 10
0.0
 20
7.444
 30
103.714
 70
   192
  0
VERTEX
  8
04ZCOL05-MAIN
  5
2A4
 10
0.0
 20
7.26
 30
103.448
 70
   192
  0
VERTEX
  8
04ZCOL05-MAIN
  5
2A5
 10
-3.63
 20
6.287
 30
103.448
 70
   192
  0
VERTEX
  8
04ZCOL05-MAIN
  5
2A6
 10
-3.498
 20
6.059
 30
103.448
 70
   192
  0
VERTEX
  8
04ZCOL05-MAIN
  5
2A7
 10
0.0
 20
6.997
 30
103.448
 70
   192
  0
VERTEX
  8
04ZCOL05-MAIN
  5
2A8
 10
-3.425
 20
5.932
 30
103.428
 70
   192
  0
VERTEX
  8
04ZCOL05-MAIN
  5
2A9
 10
0.0
 20
6.713
 30
103.372
 70
   192
  0
VERTEX
  8
04ZCOL05-MAIN
  5
2AA
 10
0.0
 20
6.85
 30
103.428
 70
   192
  0
VERTEX
  8
04ZCOL05-MAIN
  5
2AB
 10
-3.297
 20
5.711
 30
103.281
 70
   192
  0
VERTEX
  8
04ZCOL05-MAIN
  5
2AC
 10
0.0
 20
6.595
 30
103.281
 70
   192
  0
VERTEX
  8
04ZCOL05-MAIN
  5
2AD
 10
0.0
 20
6.448
 30
103.027
 70
   192
  0
VERTEX
  8
04ZCOL05-MAIN
  5
2AE
 10
-3.252
 20
5.633
 30
103.164
 70
   192
  0
VERTEX
  8
04ZCOL05-MAIN
  5
2AF
 10
0.0
 20
6.505
 30
103.164
 70
   192
  0
VERTEX
  8
04ZCOL05-MAIN
  5
2B0
 10
-3.224
 20
5.584
 30
103.027
 70
   192
  0
VERTEX
  8
04ZCOL05-MAIN
  5
2B1
 10
-4.579
 20
7.931
 30
105.429
 70
   192
  0
VERTEX
  8
04ZCOL05-MAIN
  5
2B2
 10
-3.839
 20
6.649
 30
48.857
 70
   192
  0
VERTEX
  8
04ZCOL05-MAIN
  5
2B3
 10
-6.681
 20
3.857
 30
8.679
 70
   192
  0
VERTEX
  8
04ZCOL05-MAIN
  5
2B4
 10
-8.908
 20
5.143
 30
3.857
 70
   192
  0
VERTEX
  8
04ZCOL05-MAIN
  5
2B5
 10
-5.014
 20
8.684
 30
4.821
 70
   192
  0
VERTEX
  8
04ZCOL05-MAIN
  5
2B6
 10
-8.908
 20
5.143
 30
5.786
 70
   192
  0
VERTEX
  8
04ZCOL05-MAIN
  5
2B7
 10
-8.073
 20
4.661
 30
4.116
 70
   192
  0
VERTEX
  8
04ZCOL05-MAIN
  5
2B8
 10
-4.661
 20
8.073
 30
4.116
 70
   192
  0
VERTEX
  8
04ZCOL05-MAIN
  5
2B9
 10
-4.179
 20
7.237
 30
3.857
 70
   192
  0
VERTEX
  8
04ZCOL05-MAIN
  5
2BA
 10
-5.014
 20
8.684
 30
6.75
 70
   192
  0
VERTEX
  8
04ZCOL05-MAIN
  5
2BB
 10
-8.073
 20
4.661
 30
7.456
 70
   192
  0
VERTEX
  8
04ZCOL05-MAIN
  5
2BC
 10
-8.684
 20
5.014
 30
6.75
 70
   192
  0
VERTEX
  8
04ZCOL05-MAIN
  5
2BD
 10
-5.143
 20
8.908
 30
5.786
 70
   192
  0
VERTEX
  8
04ZCOL05-MAIN
  5
2BE
 10
-3.865
 20
6.695
 30
8.554
 70
   192
  0
VERTEX
  8
04ZCOL05-MAIN
  5
2BF
 10
-3.889
 20
6.737
 30
8.438
 70
   192
  0
VERTEX
  8
04ZCOL05-MAIN
  5
2C0
 10
-3.978
 20
6.89
 30
8.261
 70
   192
  0
VERTEX
  8
04ZCOL05-MAIN
  5
2C1
 10
-6.803
 20
3.928
 30
8.338
 70
   192
  0
VERTEX
  8
04ZCOL05-MAIN
  5
2C2
 10
-6.89
 20
3.978
 30
8.261
 70
   192
  0
VERTEX
  8
04ZCOL05-MAIN
  5
2C3
 10
-7.098
 20
4.098
 30
8.196
 70
   192
  0
VERTEX
  8
04ZCOL05-MAIN
  5
2C4
 10
-4.098
 20
7.098
 30
8.196
 70
   192
  0
VERTEX
  8
04ZCOL05-MAIN
  5
2C5
 10
-4.179
 20
7.237
 30
7.714
 70
   192
  0
VERTEX
  8
04ZCOL05-MAIN
  5
2C6
 10
-4.098
 20
7.098
 30
7.714
 70
   192
  0
VERTEX
  8
04ZCOL05-MAIN
  5
2C7
 10
-6.649
 20
3.839
 30
48.857
 70
   192
  0
VERTEX
  8
04ZCOL05-MAIN
  5
2C8
 10
-3.567
 20
6.178
 30
79.714
 70
   192
  0
VERTEX
  8
04ZCOL05-MAIN
  5
2C9
 10
-3.784
 20
6.554
 30
59.143
 70
   192
  0
VERTEX
  8
04ZCOL05-MAIN
  5
2CA
 10
-6.396
 20
3.693
 30
69.429
 70
   192
  0
VERTEX
  8
04ZCOL05-MAIN
  5
2CB
 10
-7.732
 20
4.464
 30
104.571
 70
   192
  0
VERTEX
  8
04ZCOL05-MAIN
  5
2CC
 10
-7.88
 20
4.55
 30
104.985
 70
   192
  0
VERTEX
  8
04ZCOL05-MAIN
  5
2CD
 10
-5.567
 20
3.214
 30
97.251
 70
   192
  0
VERTEX
  8
04ZCOL05-MAIN
  5
2CE
 10
-3.214
 20
5.567
 30
100.286
 70
   192
  0
VERTEX
  8
04ZCOL05-MAIN
  5
2CF
 10
-5.567
 20
3.214
 30
102.88
 70
   192
  0
VERTEX
  8
04ZCOL05-MAIN
  5
2D0
 10
-6.045
 20
3.49
 30
100.286
 70
   192
  0
VERTEX
  8
04ZCOL05-MAIN
  5
2D1
 10
-5.567
 20
3.214
 30
100.286
 70
   192
  0
VERTEX
  8
04ZCOL05-MAIN
  5
2D2
 10
-6.323
 20
3.651
 30
100.2
 70
   192
  0
VERTEX
  8
04ZCOL05-MAIN
  5
2D3
 10
-3.811
 20
6.601
 30
99.643
 70
   192
  0
VERTEX
  8
04ZCOL05-MAIN
  5
2D4
 10
-6.601
 20
3.811
 30
99.643
 70
   192
  0
VERTEX
  8
04ZCOL05-MAIN
  5
2D5
 10
-3.768
 20
6.527
 30
99.321
 70
   192
  0
VERTEX
  8
04ZCOL05-MAIN
  5
2D6
 10
-3.415
 20
5.915
 30
98.978
 70
   192
  0
VERTEX
  8
04ZCOL05-MAIN
  5
2D7
 10
-3.375
 20
5.846
 30
99.0
 70
   192
  0
VERTEX
  8
04ZCOL05-MAIN
  5
2D8
 10
-5.915
 20
3.415
 30
98.978
 70
   192
  0
VERTEX
  8
04ZCOL05-MAIN
  5
2D9
 10
-5.966
 20
3.445
 30
98.92
 70
   192
  0
VERTEX
  8
04ZCOL05-MAIN
  5
2DA
 10
-5.985
 20
3.455
 30
98.839
 70
   192
  0
VERTEX
  8
04ZCOL05-MAIN
  5
2DB
 10
-3.445
 20
5.966
 30
98.92
 70
   192
  0
VERTEX
  8
04ZCOL05-MAIN
  5
2DC
 10
-5.966
 20
3.445
 30
98.759
 70
   192
  0
VERTEX
  8
04ZCOL05-MAIN
  5
2DD
 10
-3.445
 20
5.966
 30
98.759
 70
   192
  0
VERTEX
  8
04ZCOL05-MAIN
  5
2DE
 10
-3.455
 20
5.985
 30
98.839
 70
   192
  0
VERTEX
  8
04ZCOL05-MAIN
  5
2DF
 10
-3.415
 20
5.915
 30
98.7
 70
   192
  0
VERTEX
  8
04ZCOL05-MAIN
  5
2E0
 10
-3.333
 20
5.774
 30
98.668
 70
   192
  0
VERTEX
  8
04ZCOL05-MAIN
  5
2E1
 10
-3.295
 20
5.706
 30
98.636
 70
   192
  0
VERTEX
  8
04ZCOL05-MAIN
  5
2E2
 10
-5.706
 20
3.295
 30
98.636
 70
   192
  0
VERTEX
  8
04ZCOL05-MAIN
  5
2E3
 10
-3.261
 20
5.649
 30
98.584
 70
   192
  0
VERTEX
  8
04ZCOL05-MAIN
  5
2E4
 10
-5.649
 20
3.261
 30
98.584
 70
   192
  0
VERTEX
  8
04ZCOL05-MAIN
  5
2E5
 10
-5.605
 20
3.236
 30
98.518
 70
   192
  0
VERTEX
  8
04ZCOL05-MAIN
  5
2E6
 10
-3.214
 20
5.567
 30
98.357
 70
   192
  0
VERTEX
  8
04ZCOL05-MAIN
  5
2E7
 10
-5.577
 20
3.22
 30
98.44
 70
   192
  0
VERTEX
  8
04ZCOL05-MAIN
  5
2E8
 10
-4.464
 20
7.732
 30
104.571
 70
   192
  0
VERTEX
  8
04ZCOL05-MAIN
  5
2E9
 10
-4.328
 20
7.496
 30
104.216
 70
   192
  0
VERTEX
  8
04ZCOL05-MAIN
  5
2EA
 10
-7.189
 20
4.15
 30
103.944
 70
   192
  0
VERTEX
  8
04ZCOL05-MAIN
  5
2EB
 10
-3.944
 20
6.831
 30
103.773
 70
   192
  0
VERTEX
  8
04ZCOL05-MAIN
  5
2EC
 10
-4.15
 20
7.189
 30
103.944
 70
   192
  0
VERTEX
  8
04ZCOL05-MAIN
  5
2ED
 10
-6.059
 20
3.498
 30
103.448
 70
   192
  0
VERTEX
  8
04ZCOL05-MAIN
  5
2EE
 10
-3.356
 20
5.813
 30
103.372
 70
   192
  0
VERTEX
  8
04ZCOL05-MAIN
  5
2EF
 10
-5.813
 20
3.356
 30
103.372
 70
   192
  0
VERTEX
  8
04ZCOL05-MAIN
  5
2F0
 10
-5.633
 20
3.252
 30
103.164
 70
   192
  0
VERTEX
  8
04ZCOL05-MAIN
  5
2F1
 10
-5.584
 20
3.224
 30
103.027
 70
   192
  0
VERTEX
  8
04ZCOL05-MAIN
  5
2F2
 10
-7.931
 20
4.579
 30
105.429
 70
   192
  0
VERTEX
  8
04ZCOL05-MAIN
  5
2F3
 10
-6.554
 20
3.784
 30
59.143
 70
   192
  0
VERTEX
  8
04ZCOL05-MAIN
  5
2F4
 10
-8.908
 20
5.143
 30
0.0
 70
   192
  0
VERTEX
  8
04ZCOL05-MAIN
  5
2F5
 10
-10.286
 20
0.0
 30
0.0
 70
   192
  0
VERTEX
  8
04ZCOL05-MAIN
  5
2F6
 10
-8.684
 20
5.014
 30
4.821
 70
   192
  0
VERTEX
  8
04ZCOL05-MAIN
  5
2F7
 10
-10.286
 20
0.0
 30
5.786
 70
   192
  0
VERTEX
  8
04ZCOL05-MAIN
  5
2F8
 10
-10.027
 20
0.0
 30
4.821
 70
   192
  0
VERTEX
  8
04ZCOL05-MAIN
  5
2F9
 10
-7.237
 20
4.179
 30
3.857
 70
   192
  0
VERTEX
  8
04ZCOL05-MAIN
  5
2FA
 10
-9.321
 20
0.0
 30
4.116
 70
   192
  0
VERTEX
  8
04ZCOL05-MAIN
  5
2FB
 10
-8.357
 20
0.0
 30
3.857
 70
   192
  0
VERTEX
  8
04ZCOL05-MAIN
  5
2FC
 10
-10.027
 20
0.0
 30
6.75
 70
   192
  0
VERTEX
  8
04ZCOL05-MAIN
  5
2FD
 10
-6.695
 20
3.865
 30
8.554
 70
   192
  0
VERTEX
  8
04ZCOL05-MAIN
  5
2FE
 10
-6.737
 20
3.889
 30
8.438
 70
   192
  0
VERTEX
  8
04ZCOL05-MAIN
  5
2FF
 10
-7.955
 20
0.0
 30
8.261
 70
   192
  0
VERTEX
  8
04ZCOL05-MAIN
  5
300
 10
-8.196
 20
0.0
 30
8.196
 70
   192
  0
VERTEX
  8
04ZCOL05-MAIN
  5
301
 10
-6.99
 20
4.036
 30
8.213
 70
   192
  0
VERTEX
  8
04ZCOL05-MAIN
  5
302
 10
-8.196
 20
0.0
 30
7.714
 70
   192
  0
VERTEX
  8
04ZCOL05-MAIN
  5
303
 10
-7.237
 20
4.179
 30
7.714
 70
   192
  0
VERTEX
  8
04ZCOL05-MAIN
  5
304
 10
-7.098
 20
4.098
 30
7.714
 70
   192
  0
VERTEX
  8
04ZCOL05-MAIN
  5
305
 10
-6.681
 20
3.857
 30
38.571
 70
   192
  0
VERTEX
  8
04ZCOL05-MAIN
  5
306
 10
-6.178
 20
3.567
 30
79.714
 70
   192
  0
VERTEX
  8
04ZCOL05-MAIN
  5
307
 10
-7.386
 20
0.0
 30
69.429
 70
   192
  0
VERTEX
  8
04ZCOL05-MAIN
  5
308
 10
-7.134
 20
0.0
 30
79.714
 70
   192
  0
VERTEX
  8
04ZCOL05-MAIN
  5
309
 10
-5.901
 20
3.407
 30
90.0
 70
   192
  0
VERTEX
  8
04ZCOL05-MAIN
  5
30A
 10
-6.429
 20
0.0
 30
97.251
 70
   192
  0
VERTEX
  8
04ZCOL05-MAIN
  5
30B
 10
-7.301
 20
0.0
 30
100.2
 70
   192
  0
VERTEX
  8
04ZCOL05-MAIN
  5
30C
 10
-6.527
 20
3.768
 30
99.964
 70
   192
  0
VERTEX
  8
04ZCOL05-MAIN
  5
30D
 10
-6.323
 20
3.651
 30
99.086
 70
   192
  0
VERTEX
  8
04ZCOL05-MAIN
  5
30E
 10
-6.527
 20
3.768
 30
99.321
 70
   192
  0
VERTEX
  8
04ZCOL05-MAIN
  5
30F
 10
-5.846
 20
3.375
 30
99.0
 70
   192
  0
VERTEX
  8
04ZCOL05-MAIN
  5
310
 10
-6.045
 20
3.49
 30
99.0
 70
   192
  0
VERTEX
  8
04ZCOL05-MAIN
  5
311
 10
-6.889
 20
0.0
 30
98.92
 70
   192
  0
VERTEX
  8
04ZCOL05-MAIN
  5
312
 10
-6.911
 20
0.0
 30
98.839
 70
   192
  0
VERTEX
  8
04ZCOL05-MAIN
  5
313
 10
-5.915
 20
3.415
 30
98.7
 70
   192
  0
VERTEX
  8
04ZCOL05-MAIN
  5
314
 10
-6.83
 20
0.0
 30
98.7
 70
   192
  0
VERTEX
  8
04ZCOL05-MAIN
  5
315
 10
-5.846
 20
3.375
 30
98.679
 70
   192
  0
VERTEX
  8
04ZCOL05-MAIN
  5
316
 10
-6.667
 20
0.0
 30
98.668
 70
   192
  0
VERTEX
  8
04ZCOL05-MAIN
  5
317
 10
-5.774
 20
3.333
 30
98.668
 70
   192
  0
VERTEX
  8
04ZCOL05-MAIN
  5
318
 10
-6.472
 20
0.0
 30
98.518
 70
   192
  0
VERTEX
  8
04ZCOL05-MAIN
  5
319
 10
-6.44
 20
0.0
 30
98.44
 70
   192
  0
VERTEX
  8
04ZCOL05-MAIN
  5
31A
 10
-5.567
 20
3.214
 30
98.357
 70
   192
  0
VERTEX
  8
04ZCOL05-MAIN
  5
31B
 10
-7.496
 20
4.328
 30
104.216
 70
   192
  0
VERTEX
  8
04ZCOL05-MAIN
  5
31C
 10
-8.656
 20
0.0
 30
104.216
 70
   192
  0
VERTEX
  8
04ZCOL05-MAIN
  5
31D
 10
-7.887
 20
0.0
 30
103.773
 70
   192
  0
VERTEX
  8
04ZCOL05-MAIN
  5
31E
 10
-6.831
 20
3.944
 30
103.773
 70
   192
  0
VERTEX
  8
04ZCOL05-MAIN
  5
31F
 10
-6.287
 20
3.63
 30
103.714
 70
   192
  0
VERTEX
  8
04ZCOL05-MAIN
  5
320
 10
-6.446
 20
3.722
 30
103.714
 70
   192
  0
VERTEX
  8
04ZCOL05-MAIN
  5
321
 10
-6.997
 20
0.0
 30
103.448
 70
   192
  0
VERTEX
  8
04ZCOL05-MAIN
  5
322
 10
-6.287
 20
3.63
 30
103.448
 70
   192
  0
VERTEX
  8
04ZCOL05-MAIN
  5
323
 10
-6.713
 20
0.0
 30
103.372
 70
   192
  0
VERTEX
  8
04ZCOL05-MAIN
  5
324
 10
-5.932
 20
3.425
 30
103.428
 70
   192
  0
VERTEX
  8
04ZCOL05-MAIN
  5
325
 10
-5.711
 20
3.297
 30
103.281
 70
   192
  0
VERTEX
  8
04ZCOL05-MAIN
  5
326
 10
-6.505
 20
0.0
 30
103.164
 70
   192
  0
VERTEX
  8
04ZCOL05-MAIN
  5
327
 10
-6.448
 20
0.0
 30
103.027
 70
   192
  0
VERTEX
  8
04ZCOL05-MAIN
  5
328
 10
-9.099
 20
0.0
 30
104.985
 70
   192
  0
VERTEX
  8
04ZCOL05-MAIN
  5
329
 10
-9.158
 20
0.0
 30
105.429
 70
   192
  0
VERTEX
  8
04ZCOL05-MAIN
  5
32A
 10
-7.568
 20
0.0
 30
59.143
 70
   192
  0
VERTEX
  8
04ZCOL05-MAIN
  5
32B
 10
-6.681
 20
-3.857
 30
8.679
 70
   192
  0
VERTEX
  8
04ZCOL05-MAIN
  5
32C
 10
-7.714
 20
0.0
 30
8.679
 70
   192
  0
VERTEX
  8
04ZCOL05-MAIN
  5
32D
 10
-9.321
 20
0.0
 30
7.456
 70
   192
  0
VERTEX
  8
04ZCOL05-MAIN
  5
32E
 10
-8.073
 20
-4.661
 30
4.116
 70
   192
  0
VERTEX
  8
04ZCOL05-MAIN
  5
32F
 10
-10.286
 20
0.0
 30
3.857
 70
   192
  0
VERTEX
  8
04ZCOL05-MAIN
  5
330
 10
-8.908
 20
-5.143
 30
3.857
 70
   192
  0
VERTEX
  8
04ZCOL05-MAIN
  5
331
 10
-7.237
 20
-4.179
 30
3.857
 70
   192
  0
VERTEX
  8
04ZCOL05-MAIN
  5
332
 10
-8.684
 20
-5.014
 30
6.75
 70
   192
  0
VERTEX
  8
04ZCOL05-MAIN
  5
333
 10
-7.779
 20
0.0
 30
8.438
 70
   192
  0
VERTEX
  8
04ZCOL05-MAIN
  5
334
 10
-7.731
 20
0.0
 30
8.554
 70
   192
  0
VERTEX
  8
04ZCOL05-MAIN
  5
335
 10
-6.803
 20
-3.928
 30
8.338
 70
   192
  0
VERTEX
  8
04ZCOL05-MAIN
  5
336
 10
-7.856
 20
0.0
 30
8.338
 70
   192
  0
VERTEX
  8
04ZCOL05-MAIN
  5
337
 10
-8.072
 20
0.0
 30
8.213
 70
   192
  0
VERTEX
  8
04ZCOL05-MAIN
  5
338
 10
-7.098
 20
-4.098
 30
7.714
 70
   192
  0
VERTEX
  8
04ZCOL05-MAIN
  5
339
 10
-8.357
 20
0.0
 30
7.714
 70
   192
  0
VERTEX
  8
04ZCOL05-MAIN
  5
33A
 10
-7.714
 20
0.0
 30
38.571
 70
   192
  0
VERTEX
  8
04ZCOL05-MAIN
  5
33B
 10
-7.678
 20
0.0
 30
48.857
 70
   192
  0
VERTEX
  8
04ZCOL05-MAIN
  5
33C
 10
-7.88
 20
-4.55
 30
104.985
 70
   192
  0
VERTEX
  8
04ZCOL05-MAIN
  5
33D
 10
-5.901
 20
-3.407
 30
90.0
 70
   192
  0
VERTEX
  8
04ZCOL05-MAIN
  5
33E
 10
-5.567
 20
-3.214
 30
97.251
 70
   192
  0
VERTEX
  8
04ZCOL05-MAIN
  5
33F
 10
-6.814
 20
0.0
 30
90.0
 70
   192
  0
VERTEX
  8
04ZCOL05-MAIN
  5
340
 10
-6.429
 20
0.0
 30
100.286
 70
   192
  0
VERTEX
  8
04ZCOL05-MAIN
  5
341
 10
-5.567
 20
-3.214
 30
98.357
 70
   192
  0
VERTEX
  8
04ZCOL05-MAIN
  5
342
 10
-6.429
 20
0.0
 30
98.357
 70
   192
  0
VERTEX
  8
04ZCOL05-MAIN
  5
343
 10
-6.98
 20
0.0
 30
100.286
 70
   192
  0
VERTEX
  8
04ZCOL05-MAIN
  5
344
 10
-6.045
 20
-3.49
 30
100.286
 70
   192
  0
VERTEX
  8
04ZCOL05-MAIN
  5
345
 10
-7.537
 20
0.0
 30
99.964
 70
   192
  0
VERTEX
  8
04ZCOL05-MAIN
  5
346
 10
-6.323
 20
-3.651
 30
100.2
 70
   192
  0
VERTEX
  8
04ZCOL05-MAIN
  5
347
 10
-7.623
 20
0.0
 30
99.643
 70
   192
  0
VERTEX
  8
04ZCOL05-MAIN
  5
348
 10
-7.301
 20
0.0
 30
99.086
 70
   192
  0
VERTEX
  8
04ZCOL05-MAIN
  5
349
 10
-6.527
 20
-3.768
 30
99.321
 70
   192
  0
VERTEX
  8
04ZCOL05-MAIN
  5
34A
 10
-7.537
 20
0.0
 30
99.321
 70
   192
  0
VERTEX
  8
04ZCOL05-MAIN
  5
34B
 10
-6.98
 20
0.0
 30
99.0
 70
   192
  0
VERTEX
  8
04ZCOL05-MAIN
  5
34C
 10
-6.75
 20
0.0
 30
99.0
 70
   192
  0
VERTEX
  8
04ZCOL05-MAIN
  5
34D
 10
-5.846
 20
-3.375
 30
99.0
 70
   192
  0
VERTEX
  8
04ZCOL05-MAIN
  5
34E
 10
-6.83
 20
0.0
 30
98.978
 70
   192
  0
VERTEX
  8
04ZCOL05-MAIN
  5
34F
 10
-6.889
 20
0.0
 30
98.759
 70
   192
  0
VERTEX
  8
04ZCOL05-MAIN
  5
350
 10
-5.966
 20
-3.445
 30
98.759
 70
   192
  0
VERTEX
  8
04ZCOL05-MAIN
  5
351
 10
-5.915
 20
-3.415
 30
98.7
 70
   192
  0
VERTEX
  8
04ZCOL05-MAIN
  5
352
 10
-5.846
 20
-3.375
 30
98.679
 70
   192
  0
VERTEX
  8
04ZCOL05-MAIN
  5
353
 10
-6.75
 20
0.0
 30
98.679
 70
   192
  0
VERTEX
  8
04ZCOL05-MAIN
  5
354
 10
-6.589
 20
0.0
 30
98.636
 70
   192
  0
VERTEX
  8
04ZCOL05-MAIN
  5
355
 10
-6.523
 20
0.0
 30
98.584
 70
   192
  0
VERTEX
  8
04ZCOL05-MAIN
  5
356
 10
-5.706
 20
-3.295
 30
98.636
 70
   192
  0
VERTEX
  8
04ZCOL05-MAIN
  5
357
 10
-5.649
 20
-3.261
 30
98.584
 70
   192
  0
VERTEX
  8
04ZCOL05-MAIN
  5
358
 10
-5.605
 20
-3.236
 30
98.518
 70
   192
  0
VERTEX
  8
04ZCOL05-MAIN
  5
359
 10
-5.577
 20
-3.22
 30
98.44
 70
   192
  0
VERTEX
  8
04ZCOL05-MAIN
  5
35A
 10
-8.928
 20
0.0
 30
104.571
 70
   192
  0
VERTEX
  8
04ZCOL05-MAIN
  5
35B
 10
-7.496
 20
-4.328
 30
104.216
 70
   192
  0
VERTEX
  8
04ZCOL05-MAIN
  5
35C
 10
-7.189
 20
-4.15
 30
103.944
 70
   192
  0
VERTEX
  8
04ZCOL05-MAIN
  5
35D
 10
-8.301
 20
0.0
 30
103.944
 70
   192
  0
VERTEX
  8
04ZCOL05-MAIN
  5
35E
 10
-7.444
 20
0.0
 30
103.714
 70
   192
  0
VERTEX
  8
04ZCOL05-MAIN
  5
35F
 10
-7.26
 20
0.0
 30
103.714
 70
   192
  0
VERTEX
  8
04ZCOL05-MAIN
  5
360
 10
-7.26
 20
0.0
 30
103.448
 70
   192
  0
VERTEX
  8
04ZCOL05-MAIN
  5
361
 10
-6.287
 20
-3.63
 30
103.448
 70
   192
  0
VERTEX
  8
04ZCOL05-MAIN
  5
362
 10
-6.85
 20
0.0
 30
103.428
 70
   192
  0
VERTEX
  8
04ZCOL05-MAIN
  5
363
 10
-6.059
 20
-3.498
 30
103.448
 70
   192
  0
VERTEX
  8
04ZCOL05-MAIN
  5
364
 10
-6.595
 20
0.0
 30
103.281
 70
   192
  0
VERTEX
  8
04ZCOL05-MAIN
  5
365
 10
-5.711
 20
-3.297
 30
103.281
 70
   192
  0
VERTEX
  8
04ZCOL05-MAIN
  5
366
 10
-5.813
 20
-3.356
 30
103.372
 70
   192
  0
VERTEX
  8
04ZCOL05-MAIN
  5
367
 10
-5.584
 20
-3.224
 30
103.027
 70
   192
  0
VERTEX
  8
04ZCOL05-MAIN
  5
368
 10
-6.429
 20
0.0
 30
102.88
 70
   192
  0
VERTEX
  8
04ZCOL05-MAIN
  5
369
 10
-7.931
 20
-4.579
 30
105.429
 70
   192
  0
VERTEX
  8
04ZCOL05-MAIN
  5
36A
 10
0.0
 20
0.0
 30
0.0
 70
   128
 71
   688
 72
  -687
 73
   752
  0
VERTEX
  8
04ZCOL05-MAIN
  5
36B
 10
0.0
 20
0.0
 30
0.0
 70
   128
 71
   707
 72
  -752
 73
   687
  0
VERTEX
  8
04ZCOL05-MAIN
  5
36C
 10
0.0
 20
0.0
 30
0.0
 70
   128
 71
   686
 72
  -751
 73
   750
  0
VERTEX
  8
04ZCOL05-MAIN
  5
36D
 10
0.0
 20
0.0
 30
0.0
 70
   128
 71
    51
 72
  -750
 73
   751
  0
VERTEX
  8
04ZCOL05-MAIN
  5
36E
 10
0.0
 20
0.0
 30
0.0
 70
   128
 71
   685
 72
  -686
 73
    79
  0
VERTEX
  8
04ZCOL05-MAIN
  5
36F
 10
0.0
 20
0.0
 30
0.0
 70
   128
 71
   750
 72
   -79
 73
   686
  0
VERTEX
  8
04ZCOL05-MAIN
  5
370
 10
0.0
 20
0.0
 30
0.0
 70
   128
 71
   747
 72
  -685
 73
   748
  0
VERTEX
  8
04ZCOL05-MAIN
  5
371
 10
0.0
 20
0.0
 30
0.0
 70
   128
 71
    79
 72
  -748
 73
   685
  0
VERTEX
  8
04ZCOL05-MAIN
  5
372
 10
0.0
 20
0.0
 30
0.0
 70
   128
 71
   682
 72
  -747
 73
   749
  0
VERTEX
  8
04ZCOL05-MAIN
  5
373
 10
0.0
 20
0.0
 30
0.0
 70
   128
 71
   748
 72
  -749
 73
   747
  0
VERTEX
  8
04ZCOL05-MAIN
  5
374
 10
0.0
 20
0.0
 30
0.0
 70
   128
 71
   745
 72
  -682
 73
    77
  0
VERTEX
  8
04ZCOL05-MAIN
  5
375
 10
0.0
 20
0.0
 30
0.0
 70
   128
 71
   749
 72
   -77
 73
   682
  0
VERTEX
  8
04ZCOL05-MAIN
  5
376
 10
0.0
 20
0.0
 30
0.0
 70
   128
 71
   680
 72
  -745
 73
   746
  0
VERTEX
  8
04ZCOL05-MAIN
  5
377
 10
0.0
 20
0.0
 30
0.0
 70
   128
 71
    77
 72
  -746
 73
   745
  0
VERTEX
  8
04ZCOL05-MAIN
  5
378
 10
0.0
 20
0.0
 30
0.0
 70
   128
 71
   743
 72
  -680
 73
   744
  0
VERTEX
  8
04ZCOL05-MAIN
  5
379
 10
0.0
 20
0.0
 30
0.0
 70
   128
 71
   746
 72
  -744
 73
   680
  0
VERTEX
  8
04ZCOL05-MAIN
  5
37A
 10
0.0
 20
0.0
 30
0.0
 70
   128
 71
   742
 72
  -743
 73
    72
  0
VERTEX
  8
04ZCOL05-MAIN
  5
37B
 10
0.0
 20
0.0
 30
0.0
 70
   128
 71
   744
 72
   -72
 73
   743
  0
VERTEX
  8
04ZCOL05-MAIN
  5
37C
 10
0.0
 20
0.0
 30
0.0
 70
   128
 71
   741
 72
  -742
 73
    70
  0
VERTEX
  8
04ZCOL05-MAIN
  5
37D
 10
0.0
 20
0.0
 30
0.0
 70
   128
 71
    72
 72
   -70
 73
   742
  0
VERTEX
  8
04ZCOL05-MAIN
  5
37E
 10
0.0
 20
0.0
 30
0.0
 70
   128
 71
   676
 72
  -741
 73
    71
  0
VERTEX
  8
04ZCOL05-MAIN
  5
37F
 10
0.0
 20
0.0
 30
0.0
 70
   128
 71
    70
 72
   -71
 73
   741
  0
VERTEX
  8
04ZCOL05-MAIN
  5
380
 10
0.0
 20
0.0
 30
0.0
 70
   128
 71
   740
 72
  -676
 73
   739
  0
VERTEX
  8
04ZCOL05-MAIN
  5
381
 10
0.0
 20
0.0
 30
0.0
 70
   128
 71
    71
 72
  -739
 73
   676
  0
VERTEX
  8
04ZCOL05-MAIN
  5
382
 10
0.0
 20
0.0
 30
0.0
 70
   128
 71
   675
 72
  -740
 73
   738
  0
VERTEX
  8
04ZCOL05-MAIN
  5
383
 10
0.0
 20
0.0
 30
0.0
 70
   128
 71
   739
 72
  -738
 73
   740
  0
VERTEX
  8
04ZCOL05-MAIN
  5
384
 10
0.0
 20
0.0
 30
0.0
 70
   128
 71
   737
 72
  -675
 73
    46
  0
VERTEX
  8
04ZCOL05-MAIN
  5
385
 10
0.0
 20
0.0
 30
0.0
 70
   128
 71
   738
 72
   -46
 73
   675
  0
VERTEX
  8
04ZCOL05-MAIN
  5
386
 10
0.0
 20
0.0
 30
0.0
 70
   128
 71
   672
 72
  -713
 73
   736
  0
VERTEX
  8
04ZCOL05-MAIN
  5
387
 10
0.0
 20
0.0
 30
0.0
 70
   128
 71
   712
 72
  -736
 73
   713
  0
VERTEX
  8
04ZCOL05-MAIN
  5
388
 10
0.0
 20
0.0
 30
0.0
 70
   128
 71
   671
 72
  -672
 73
   735
  0
VERTEX
  8
04ZCOL05-MAIN
  5
389
 10
0.0
 20
0.0
 30
0.0
 70
   128
 71
   736
 72
  -735
 73
   672
  0
VERTEX
  8
04ZCOL05-MAIN
  5
38A
 10
0.0
 20
0.0
 30
0.0
 70
   128
 71
   732
 72
  -671
 73
   734
  0
VERTEX
  8
04ZCOL05-MAIN
  5
38B
 10
0.0
 20
0.0
 30
0.0
 70
   128
 71
   735
 72
  -734
 73
   671
  0
VERTEX
  8
04ZCOL05-MAIN
  5
38C
 10
0.0
 20
0.0
 30
0.0
 70
   128
 71
   731
 72
  -732
 73
   733
  0
VERTEX
  8
04ZCOL05-MAIN
  5
38D
 10
0.0
 20
0.0
 30
0.0
 70
   128
 71
   734
 72
  -733
 73
   732
  0
VERTEX
  8
04ZCOL05-MAIN
  5
38E
 10
0.0
 20
0.0
 30
0.0
 70
   128
 71
   669
 72
  -731
 73
    65
  0
VERTEX
  8
04ZCOL05-MAIN
  5
38F
 10
0.0
 20
0.0
 30
0.0
 70
   128
 71
   733
 72
   -65
 73
   731
  0
VERTEX
  8
04ZCOL05-MAIN
  5
390
 10
0.0
 20
0.0
 30
0.0
 70
   128
 71
   730
 72
  -669
 73
   729
  0
VERTEX
  8
04ZCOL05-MAIN
  5
391
 10
0.0
 20
0.0
 30
0.0
 70
   128
 71
    65
 72
  -729
 73
   669
  0
VERTEX
  8
04ZCOL05-MAIN
  5
392
 10
0.0
 20
0.0
 30
0.0
 70
   128
 71
   667
 72
  -730
 73
   728
  0
VERTEX
  8
04ZCOL05-MAIN
  5
393
 10
0.0
 20
0.0
 30
0.0
 70
   128
 71
   729
 72
  -728
 73
   730
  0
VERTEX
  8
04ZCOL05-MAIN
  5
394
 10
0.0
 20
0.0
 30
0.0
 70
   128
 71
   726
 72
  -667
 73
   727
  0
VERTEX
  8
04ZCOL05-MAIN
  5
395
 10
0.0
 20
0.0
 30
0.0
 70
   128
 71
   728
 72
  -727
 73
   667
  0
VERTEX
  8
04ZCOL05-MAIN
  5
396
 10
0.0
 20
0.0
 30
0.0
 70
   128
 71
   665
 72
  -726
 73
    62
  0
VERTEX
  8
04ZCOL05-MAIN
  5
397
 10
0.0
 20
0.0
 30
0.0
 70
   128
 71
   727
 72
   -62
 73
   726
  0
VERTEX
  8
04ZCOL05-MAIN
  5
398
 10
0.0
 20
0.0
 30
0.0
 70
   128
 71
   664
 72
  -665
 73
    59
  0
VERTEX
  8
04ZCOL05-MAIN
  5
399
 10
0.0
 20
0.0
 30
0.0
 70
   128
 71
    62
 72
   -59
 73
   665
  0
VERTEX
  8
04ZCOL05-MAIN
  5
39A
 10
0.0
 20
0.0
 30
0.0
 70
   128
 71
   725
 72
  -664
 73
    58
  0
VERTEX
  8
04ZCOL05-MAIN
  5
39B
 10
0.0
 20
0.0
 30
0.0
 70
   128
 71
    59
 72
   -58
 73
   664
  0
VERTEX
  8
04ZCOL05-MAIN
  5
39C
 10
0.0
 20
0.0
 30
0.0
 70
   128
 71
   723
 72
  -725
 73
   724
  0
VERTEX
  8
04ZCOL05-MAIN
  5
39D
 10
0.0
 20
0.0
 30
0.0
 70
   128
 71
    58
 72
  -724
 73
   725
  0
VERTEX
  8
04ZCOL05-MAIN
  5
39E
 10
0.0
 20
0.0
 30
0.0
 70
   128
 71
   722
 72
  -723
 73
    57
  0
VERTEX
  8
04ZCOL05-MAIN
  5
39F
 10
0.0
 20
0.0
 30
0.0
 70
   128
 71
   724
 72
   -57
 73
   723
  0
VERTEX
  8
04ZCOL05-MAIN
  5
3A0
 10
0.0
 20
0.0
 30
0.0
 70
   128
 71
   719
 72
  -722
 73
    56
  0
VERTEX
  8
04ZCOL05-MAIN
  5
3A1
 10
0.0
 20
0.0
 30
0.0
 70
   128
 71
    57
 72
   -56
 73
   722
  0
VERTEX
  8
04ZCOL05-MAIN
  5
3A2
 10
0.0
 20
0.0
 30
0.0
 70
   128
 71
   721
 72
  -719
 73
   720
  0
VERTEX
  8
04ZCOL05-MAIN
  5
3A3
 10
0.0
 20
0.0
 30
0.0
 70
   128
 71
    56
 72
  -720
 73
   719
  0
VERTEX
  8
04ZCOL05-MAIN
  5
3A4
 10
0.0
 20
0.0
 30
0.0
 70
   128
 71
   718
 72
  -721
 73
    55
  0
VERTEX
  8
04ZCOL05-MAIN
  5
3A5
 10
0.0
 20
0.0
 30
0.0
 70
   128
 71
   720
 72
   -55
 73
   721
  0
VERTEX
  8
04ZCOL05-MAIN
  5
3A6
 10
0.0
 20
0.0
 30
0.0
 70
   128
 71
   716
 72
  -718
 73
    52
  0
VERTEX
  8
04ZCOL05-MAIN
  5
3A7
 10
0.0
 20
0.0
 30
0.0
 70
   128
 71
    55
 72
   -52
 73
   718
  0
VERTEX
  8
04ZCOL05-MAIN
  5
3A8
 10
0.0
 20
0.0
 30
0.0
 70
   128
 71
   658
 72
  -716
 73
   717
  0
VERTEX
  8
04ZCOL05-MAIN
  5
3A9
 10
0.0
 20
0.0
 30
0.0
 70
   128
 71
    52
 72
  -717
 73
   716
  0
VERTEX
  8
04ZCOL05-MAIN
  5
3AA
 10
0.0
 20
0.0
 30
0.0
 70
   128
 71
   714
 72
  -658
 73
   715
  0
VERTEX
  8
04ZCOL05-MAIN
  5
3AB
 10
0.0
 20
0.0
 30
0.0
 70
   128
 71
   717
 72
  -715
 73
   658
  0
VERTEX
  8
04ZCOL05-MAIN
  5
3AC
 10
0.0
 20
0.0
 30
0.0
 70
   128
 71
   711
 72
  -714
 73
    48
  0
VERTEX
  8
04ZCOL05-MAIN
  5
3AD
 10
0.0
 20
0.0
 30
0.0
 70
   128
 71
   715
 72
   -48
 73
   714
  0
VERTEX
  8
04ZCOL05-MAIN
  5
3AE
 10
0.0
 20
0.0
 30
0.0
 70
   128
 71
   713
 72
  -657
 73
   712
  0
VERTEX
  8
04ZCOL05-MAIN
  5
3AF
 10
0.0
 20
0.0
 30
0.0
 70
   128
 71
   709
 72
  -712
 73
   657
  0
VERTEX
  8
04ZCOL05-MAIN
  5
3B0
 10
0.0
 20
0.0
 30
0.0
 70
   128
 71
   751
 72
  -711
 73
    51
  0
VERTEX
  8
04ZCOL05-MAIN
  5
3B1
 10
0.0
 20
0.0
 30
0.0
 70
   128
 71
    48
 72
   -51
 73
   711
  0
VERTEX
  8
04ZCOL05-MAIN
  5
3B2
 10
0.0
 20
0.0
 30
0.0
 70
   128
 71
   657
 72
  -710
 73
   709
  0
VERTEX
  8
04ZCOL05-MAIN
  5
3B3
 10
0.0
 20
0.0
 30
0.0
 70
   128
 71
   708
 72
  -709
 73
   710
  0
VERTEX
  8
04ZCOL05-MAIN
  5
3B4
 10
0.0
 20
0.0
 30
0.0
 70
   128
 71
   687
 72
  -737
 73
   707
  0
VERTEX
  8
04ZCOL05-MAIN
  5
3B5
 10
0.0
 20
0.0
 30
0.0
 70
   128
 71
    46
 72
  -707
 73
   737
  0
VERTEX
  8
04ZCOL05-MAIN
  5
3B6
 10
0.0
 20
0.0
 30
0.0
 70
   128
 71
   654
 72
  -689
 73
    42
  0
VERTEX
  8
04ZCOL05-MAIN
  5
3B7
 10
0.0
 20
0.0
 30
0.0
 70
   128
 71
    23
 72
   -42
 73
   689
  0
VERTEX
  8
04ZCOL05-MAIN
  5
3B8
 10
0.0
 20
0.0
 30
0.0
 70
   128
 71
   655
 72
  -654
 73
    44
  0
VERTEX
  8
04ZCOL05-MAIN
  5
3B9
 10
0.0
 20
0.0
 30
0.0
 70
   128
 71
    42
 72
   -44
 73
   654
  0
VERTEX
  8
04ZCOL05-MAIN
  5
3BA
 10
0.0
 20
0.0
 30
0.0
 70
   128
 71
   710
 72
  -655
 73
   708
  0
VERTEX
  8
04ZCOL05-MAIN
  5
3BB
 10
0.0
 20
0.0
 30
0.0
 70
   128
 71
    44
 72
  -708
 73
   655
  0
VERTEX
  8
04ZCOL05-MAIN
  5
3BC
 10
0.0
 20
0.0
 30
0.0
 70
   128
 71
   706
 72
  -705
 73
    22
  0
VERTEX
  8
04ZCOL05-MAIN
  5
3BD
 10
0.0
 20
0.0
 30
0.0
 70
   128
 71
    40
 72
   -22
 73
   705
  0
VERTEX
  8
04ZCOL05-MAIN
  5
3BE
 10
0.0
 20
0.0
 30
0.0
 70
   128
 71
   649
 72
  -704
 73
   703
  0
VERTEX
  8
04ZCOL05-MAIN
  5
3BF
 10
0.0
 20
0.0
 30
0.0
 70
   128
 71
    38
 72
  -703
 73
   704
  0
VERTEX
  8
04ZCOL05-MAIN
  5
3C0
 10
0.0
 20
0.0
 30
0.0
 70
   128
 71
   647
 72
  -649
 73
    37
  0
VERTEX
  8
04ZCOL05-MAIN
  5
3C1
 10
0.0
 20
0.0
 30
0.0
 70
   128
 71
   703
 72
   -37
 73
   649
  0
VERTEX
  8
04ZCOL05-MAIN
  5
3C2
 10
0.0
 20
0.0
 30
0.0
 70
   128
 71
   702
 72
  -647
 73
    36
  0
VERTEX
  8
04ZCOL05-MAIN
  5
3C3
 10
0.0
 20
0.0
 30
0.0
 70
   128
 71
    37
 72
   -36
 73
   647
  0
VERTEX
  8
04ZCOL05-MAIN
  5
3C4
 10
0.0
 20
0.0
 30
0.0
 70
   128
 71
   646
 72
  -702
 73
    34
  0
VERTEX
  8
04ZCOL05-MAIN
  5
3C5
 10
0.0
 20
0.0
 30
0.0
 70
   128
 71
    36
 72
   -34
 73
   702
  0
VERTEX
  8
04ZCOL05-MAIN
  5
3C6
 10
0.0
 20
0.0
 30
0.0
 70
   128
 71
   701
 72
  -646
 73
   700
  0
VERTEX
  8
04ZCOL05-MAIN
  5
3C7
 10
0.0
 20
0.0
 30
0.0
 70
   128
 71
    34
 72
  -700
 73
   646
  0
VERTEX
  8
04ZCOL05-MAIN
  5
3C8
 10
0.0
 20
0.0
 30
0.0
 70
   128
 71
   698
 72
  -701
 73
    33
  0
VERTEX
  8
04ZCOL05-MAIN
  5
3C9
 10
0.0
 20
0.0
 30
0.0
 70
   128
 71
   700
 72
   -33
 73
   701
  0
VERTEX
  8
04ZCOL05-MAIN
  5
3CA
 10
0.0
 20
0.0
 30
0.0
 70
   128
 71
   699
 72
  -698
 73
    32
  0
VERTEX
  8
04ZCOL05-MAIN
  5
3CB
 10
0.0
 20
0.0
 30
0.0
 70
   128
 71
    33
 72
   -32
 73
   698
  0
VERTEX
  8
04ZCOL05-MAIN
  5
3CC
 10
0.0
 20
0.0
 30
0.0
 70
   128
 71
   691
 72
  -699
 73
   690
  0
VERTEX
  8
04ZCOL05-MAIN
  5
3CD
 10
0.0
 20
0.0
 30
0.0
 70
   128
 71
    32
 72
  -690
 73
   699
  0
VERTEX
  8
04ZCOL05-MAIN
  5
3CE
 10
0.0
 20
0.0
 30
0.0
 70
   128
 71
   643
 72
  -638
 73
   697
  0
VERTEX
  8
04ZCOL05-MAIN
  5
3CF
 10
0.0
 20
0.0
 30
0.0
 70
   128
 71
    29
 72
  -697
 73
   638
  0
VERTEX
  8
04ZCOL05-MAIN
  5
3D0
 10
0.0
 20
0.0
 30
0.0
 70
   128
 71
   692
 72
  -643
 73
    26
  0
VERTEX
  8
04ZCOL05-MAIN
  5
3D1
 10
0.0
 20
0.0
 30
0.0
 70
   128
 71
   697
 72
   -26
 73
   643
  0
VERTEX
  8
04ZCOL05-MAIN
  5
3D2
 10
0.0
 20
0.0
 30
0.0
 70
   128
 71
   642
 72
  -694
 73
   696
  0
VERTEX
  8
04ZCOL05-MAIN
  5
3D3
 10
0.0
 20
0.0
 30
0.0
 70
   128
 71
   695
 72
  -696
 73
   694
  0
VERTEX
  8
04ZCOL05-MAIN
  5
3D4
 10
0.0
 20
0.0
 30
0.0
 70
   128
 71
   641
 72
  -642
 73
   693
  0
VERTEX
  8
04ZCOL05-MAIN
  5
3D5
 10
0.0
 20
0.0
 30
0.0
 70
   128
 71
   696
 72
  -693
 73
   642
  0
VERTEX
  8
04ZCOL05-MAIN
  5
3D6
 10
0.0
 20
0.0
 30
0.0
 70
   128
 71
   639
 72
  -641
 73
    27
  0
VERTEX
  8
04ZCOL05-MAIN
  5
3D7
 10
0.0
 20
0.0
 30
0.0
 70
   128
 71
   693
 72
   -27
 73
   641
  0
VERTEX
  8
04ZCOL05-MAIN
  5
3D8
 10
0.0
 20
0.0
 30
0.0
 70
   128
 71
   638
 72
  -639
 73
    29
  0
VERTEX
  8
04ZCOL05-MAIN
  5
3D9
 10
0.0
 20
0.0
 30
0.0
 70
   128
 71
    27
 72
   -29
 73
   639
  0
VERTEX
  8
04ZCOL05-MAIN
  5
3DA
 10
0.0
 20
0.0
 30
0.0
 70
   128
 71
   704
 72
  -692
 73
    38
  0
VERTEX
  8
04ZCOL05-MAIN
  5
3DB
 10
0.0
 20
0.0
 30
0.0
 70
   128
 71
    26
 72
   -38
 73
   692
  0
VERTEX
  8
04ZCOL05-MAIN
  5
3DC
 10
0.0
 20
0.0
 30
0.0
 70
   128
 71
   694
 72
  -636
 73
   695
  0
VERTEX
  8
04ZCOL05-MAIN
  5
3DD
 10
0.0
 20
0.0
 30
0.0
 70
   128
 71
    25
 72
  -695
 73
   636
  0
VERTEX
  8
04ZCOL05-MAIN
  5
3DE
 10
0.0
 20
0.0
 30
0.0
 70
   128
 71
   705
 72
  -691
 73
    40
  0
VERTEX
  8
04ZCOL05-MAIN
  5
3DF
 10
0.0
 20
0.0
 30
0.0
 70
   128
 71
   690
 72
   -40
 73
   691
  0
VERTEX
  8
04ZCOL05-MAIN
  5
3E0
 10
0.0
 20
0.0
 30
0.0
 70
   128
 71
   689
 72
  -706
 73
    23
  0
VERTEX
  8
04ZCOL05-MAIN
  5
3E1
 10
0.0
 20
0.0
 30
0.0
 70
   128
 71
    22
 72
   -23
 73
   706
  0
VERTEX
  8
04ZCOL05-MAIN
  5
3E2
 10
0.0
 20
0.0
 30
0.0
 70
   128
 71
   633
 72
  -595
 73
   688
  0
VERTEX
  8
04ZCOL05-MAIN
  5
3E3
 10
0.0
 20
0.0
 30
0.0
 70
   128
 71
   687
 72
  -688
 73
   595
  0
VERTEX
  8
04ZCOL05-MAIN
  5
3E4
 10
0.0
 20
0.0
 30
0.0
 70
   128
 71
   632
 72
  -598
 73
   686
  0
VERTEX
  8
04ZCOL05-MAIN
  5
3E5
 10
0.0
 20
0.0
 30
0.0
 70
   128
 71
   751
 72
  -686
 73
   598
  0
VERTEX
  8
04ZCOL05-MAIN
  5
3E6
 10
0.0
 20
0.0
 30
0.0
 70
   128
 71
   631
 72
  -632
 73
   685
  0
VERTEX
  8
04ZCOL05-MAIN
  5
3E7
 10
0.0
 20
0.0
 30
0.0
 70
   128
 71
   686
 72
  -685
 73
   632
  0
VERTEX
  8
04ZCOL05-MAIN
  5
3E8
 10
0.0
 20
0.0
 30
0.0
 70
   128
 71
   684
 72
  -631
 73
   747
  0
VERTEX
  8
04ZCOL05-MAIN
  5
3E9
 10
0.0
 20
0.0
 30
0.0
 70
   128
 71
   685
 72
  -747
 73
   631
  0
VERTEX
  8
04ZCOL05-MAIN
  5
3EA
 10
0.0
 20
0.0
 30
0.0
 70
   128
 71
   630
 72
  -684
 73
   682
  0
VERTEX
  8
04ZCOL05-MAIN
  5
3EB
 10
0.0
 20
0.0
 30
0.0
 70
   128
 71
   747
 72
  -682
 73
   684
  0
VERTEX
  8
04ZCOL05-MAIN
  5
3EC
 10
0.0
 20
0.0
 30
0.0
 70
   128
 71
   683
 72
  -630
 73
   745
  0
VERTEX
  8
04ZCOL05-MAIN
  5
3ED
 10
0.0
 20
0.0
 30
0.0
 70
   128
 71
   682
 72
  -745
 73
   630
  0
VERTEX
  8
04ZCOL05-MAIN
  5
3EE
 10
0.0
 20
0.0
 30
0.0
 70
   128
 71
   628
 72
  -683
 73
   680
  0
VERTEX
  8
04ZCOL05-MAIN
  5
3EF
 10
0.0
 20
0.0
 30
0.0
 70
   128
 71
   745
 72
  -680
 73
   683
  0
VERTEX
  8
04ZCOL05-MAIN
  5
3F0
 10
0.0
 20
0.0
 30
0.0
 70
   128
 71
   681
 72
  -628
 73
   743
  0
VERTEX
  8
04ZCOL05-MAIN
  5
3F1
 10
0.0
 20
0.0
 30
0.0
 70
   128
 71
   680
 72
  -743
 73
   628
  0
VERTEX
  8
04ZCOL05-MAIN
  5
3F2
 10
0.0
 20
0.0
 30
0.0
 70
   128
 71
   678
 72
  -681
 73
   742
  0
VERTEX
  8
04ZCOL05-MAIN
  5
3F3
 10
0.0
 20
0.0
 30
0.0
 70
   128
 71
   743
 72
  -742
 73
   681
  0
VERTEX
  8
04ZCOL05-MAIN
  5
3F4
 10
0.0
 20
0.0
 30
0.0
 70
   128
 71
   679
 72
  -678
 73
   741
  0
VERTEX
  8
04ZCOL05-MAIN
  5
3F5
 10
0.0
 20
0.0
 30
0.0
 70
   128
 71
   742
 72
  -741
 73
   678
  0
VERTEX
  8
04ZCOL05-MAIN
  5
3F6
 10
0.0
 20
0.0
 30
0.0
 70
   128
 71
   677
 72
  -679
 73
   676
  0
VERTEX
  8
04ZCOL05-MAIN
  5
3F7
 10
0.0
 20
0.0
 30
0.0
 70
   128
 71
   741
 72
  -676
 73
   679
  0
VERTEX
  8
04ZCOL05-MAIN
  5
3F8
 10
0.0
 20
0.0
 30
0.0
 70
   128
 71
   625
 72
  -677
 73
   740
  0
VERTEX
  8
04ZCOL05-MAIN
  5
3F9
 10
0.0
 20
0.0
 30
0.0
 70
   128
 71
   676
 72
  -740
 73
   677
  0
VERTEX
  8
04ZCOL05-MAIN
  5
3FA
 10
0.0
 20
0.0
 30
0.0
 70
   128
 71
   674
 72
  -625
 73
   675
  0
VERTEX
  8
04ZCOL05-MAIN
  5
3FB
 10
0.0
 20
0.0
 30
0.0
 70
   128
 71
   740
 72
  -675
 73
   625
  0
VERTEX
  8
04ZCOL05-MAIN
  5
3FC
 10
0.0
 20
0.0
 30
0.0
 70
   128
 71
   594
 72
  -674
 73
   737
  0
VERTEX
  8
04ZCOL05-MAIN
  5
3FD
 10
0.0
 20
0.0
 30
0.0
 70
   128
 71
   675
 72
  -737
 73
   674
  0
VERTEX
  8
04ZCOL05-MAIN
  5
3FE
 10
0.0
 20
0.0
 30
0.0
 70
   128
 71
   622
 72
  -673
 73
   672
  0
VERTEX
  8
04ZCOL05-MAIN
  5
3FF
 10
0.0
 20
0.0
 30
0.0
 70
   128
 71
   713
 72
  -672
 73
   673
  0
VERTEX
  8
04ZCOL05-MAIN
  5
400
 10
0.0
 20
0.0
 30
0.0
 70
   128
 71
   620
 72
  -622
 73
   671
  0
VERTEX
  8
04ZCOL05-MAIN
  5
401
 10
0.0
 20
0.0
 30
0.0
 70
   128
 71
   672
 72
  -671
 73
   622
  0
VERTEX
  8
04ZCOL05-MAIN
  5
402
 10
0.0
 20
0.0
 30
0.0
 70
   128
 71
   619
 72
  -620
 73
   732
  0
VERTEX
  8
04ZCOL05-MAIN
  5
403
 10
0.0
 20
0.0
 30
0.0
 70
   128
 71
   671
 72
  -732
 73
   620
  0
VERTEX
  8
04ZCOL05-MAIN
  5
404
 10
0.0
 20
0.0
 30
0.0
 70
   128
 71
   617
 72
  -619
 73
   731
  0
VERTEX
  8
04ZCOL05-MAIN
  5
405
 10
0.0
 20
0.0
 30
0.0
 70
   128
 71
   732
 72
  -731
 73
   619
  0
VERTEX
  8
04ZCOL05-MAIN
  5
406
 10
0.0
 20
0.0
 30
0.0
 70
   128
 71
   670
 72
  -617
 73
   669
  0
VERTEX
  8
04ZCOL05-MAIN
  5
407
 10
0.0
 20
0.0
 30
0.0
 70
   128
 71
   731
 72
  -669
 73
   617
  0
VERTEX
  8
04ZCOL05-MAIN
  5
408
 10
0.0
 20
0.0
 30
0.0
 70
   128
 71
   668
 72
  -670
 73
   730
  0
VERTEX
  8
04ZCOL05-MAIN
  5
409
 10
0.0
 20
0.0
 30
0.0
 70
   128
 71
   669
 72
  -730
 73
   670
  0
VERTEX
  8
04ZCOL05-MAIN
  5
40A
 10
0.0
 20
0.0
 30
0.0
 70
   128
 71
   666
 72
  -668
 73
   667
  0
VERTEX
  8
04ZCOL05-MAIN
  5
40B
 10
0.0
 20
0.0
 30
0.0
 70
   128
 71
   730
 72
  -667
 73
   668
  0
VERTEX
  8
04ZCOL05-MAIN
  5
40C
 10
0.0
 20
0.0
 30
0.0
 70
   128
 71
   611
 72
  -666
 73
   726
  0
VERTEX
  8
04ZCOL05-MAIN
  5
40D
 10
0.0
 20
0.0
 30
0.0
 70
   128
 71
   667
 72
  -726
 73
   666
  0
VERTEX
  8
04ZCOL05-MAIN
  5
40E
 10
0.0
 20
0.0
 30
0.0
 70
   128
 71
   609
 72
  -611
 73
   665
  0
VERTEX
  8
04ZCOL05-MAIN
  5
40F
 10
0.0
 20
0.0
 30
0.0
 70
   128
 71
   726
 72
  -665
 73
   611
  0
VERTEX
  8
04ZCOL05-MAIN
  5
410
 10
0.0
 20
0.0
 30
0.0
 70
   128
 71
   608
 72
  -609
 73
   664
  0
VERTEX
  8
04ZCOL05-MAIN
  5
411
 10
0.0
 20
0.0
 30
0.0
 70
   128
 71
   665
 72
  -664
 73
   609
  0
VERTEX
  8
04ZCOL05-MAIN
  5
412
 10
0.0
 20
0.0
 30
0.0
 70
   128
 71
   607
 72
  -608
 73
   725
  0
VERTEX
  8
04ZCOL05-MAIN
  5
413
 10
0.0
 20
0.0
 30
0.0
 70
   128
 71
   664
 72
  -725
 73
   608
  0
VERTEX
  8
04ZCOL05-MAIN
  5
414
 10
0.0
 20
0.0
 30
0.0
 70
   128
 71
   662
 72
  -607
 73
   723
  0
VERTEX
  8
04ZCOL05-MAIN
  5
415
 10
0.0
 20
0.0
 30
0.0
 70
   128
 71
   725
 72
  -723
 73
   607
  0
VERTEX
  8
04ZCOL05-MAIN
  5
416
 10
0.0
 20
0.0
 30
0.0
 70
   128
 71
   663
 72
  -662
 73
   722
  0
VERTEX
  8
04ZCOL05-MAIN
  5
417
 10
0.0
 20
0.0
 30
0.0
 70
   128
 71
   723
 72
  -722
 73
   662
  0
VERTEX
  8
04ZCOL05-MAIN
  5
418
 10
0.0
 20
0.0
 30
0.0
 70
   128
 71
   660
 72
  -663
 73
   719
  0
VERTEX
  8
04ZCOL05-MAIN
  5
419
 10
0.0
 20
0.0
 30
0.0
 70
   128
 71
   722
 72
  -719
 73
   663
  0
VERTEX
  8
04ZCOL05-MAIN
  5
41A
 10
0.0
 20
0.0
 30
0.0
 70
   128
 71
   661
 72
  -660
 73
   721
  0
VERTEX
  8
04ZCOL05-MAIN
  5
41B
 10
0.0
 20
0.0
 30
0.0
 70
   128
 71
   719
 72
  -721
 73
   660
  0
VERTEX
  8
04ZCOL05-MAIN
  5
41C
 10
0.0
 20
0.0
 30
0.0
 70
   128
 71
   603
 72
  -661
 73
   718
  0
VERTEX
  8
04ZCOL05-MAIN
  5
41D
 10
0.0
 20
0.0
 30
0.0
 70
   128
 71
   721
 72
  -718
 73
   661
  0
VERTEX
  8
04ZCOL05-MAIN
  5
41E
 10
0.0
 20
0.0
 30
0.0
 70
   128
 71
   659
 72
  -603
 73
   716
  0
VERTEX
  8
04ZCOL05-MAIN
  5
41F
 10
0.0
 20
0.0
 30
0.0
 70
   128
 71
   718
 72
  -716
 73
   603
  0
VERTEX
  8
04ZCOL05-MAIN
  5
420
 10
0.0
 20
0.0
 30
0.0
 70
   128
 71
   601
 72
  -659
 73
   658
  0
VERTEX
  8
04ZCOL05-MAIN
  5
421
 10
0.0
 20
0.0
 30
0.0
 70
   128
 71
   716
 72
  -658
 73
   659
  0
VERTEX
  8
04ZCOL05-MAIN
  5
422
 10
0.0
 20
0.0
 30
0.0
 70
   128
 71
   599
 72
  -601
 73
   714
  0
VERTEX
  8
04ZCOL05-MAIN
  5
423
 10
0.0
 20
0.0
 30
0.0
 70
   128
 71
   658
 72
  -714
 73
   601
  0
VERTEX
  8
04ZCOL05-MAIN
  5
424
 10
0.0
 20
0.0
 30
0.0
 70
   128
 71
   600
 72
  -599
 73
   711
  0
VERTEX
  8
04ZCOL05-MAIN
  5
425
 10
0.0
 20
0.0
 30
0.0
 70
   128
 71
   714
 72
  -711
 73
   599
  0
VERTEX
  8
04ZCOL05-MAIN
  5
426
 10
0.0
 20
0.0
 30
0.0
 70
   128
 71
   673
 72
  -596
 73
   713
  0
VERTEX
  8
04ZCOL05-MAIN
  5
427
 10
0.0
 20
0.0
 30
0.0
 70
   128
 71
   657
 72
  -713
 73
   596
  0
VERTEX
  8
04ZCOL05-MAIN
  5
428
 10
0.0
 20
0.0
 30
0.0
 70
   128
 71
   598
 72
  -600
 73
   751
  0
VERTEX
  8
04ZCOL05-MAIN
  5
429
 10
0.0
 20
0.0
 30
0.0
 70
   128
 71
   711
 72
  -751
 73
   600
  0
VERTEX
  8
04ZCOL05-MAIN
  5
42A
 10
0.0
 20
0.0
 30
0.0
 70
   128
 71
   596
 72
  -656
 73
   657
  0
VERTEX
  8
04ZCOL05-MAIN
  5
42B
 10
0.0
 20
0.0
 30
0.0
 70
   128
 71
   710
 72
  -657
 73
   656
  0
VERTEX
  8
04ZCOL05-MAIN
  5
42C
 10
0.0
 20
0.0
 30
0.0
 70
   128
 71
   595
 72
  -594
 73
   687
  0
VERTEX
  8
04ZCOL05-MAIN
  5
42D
 10
0.0
 20
0.0
 30
0.0
 70
   128
 71
   737
 72
  -687
 73
   594
  0
VERTEX
  8
04ZCOL05-MAIN
  5
42E
 10
0.0
 20
0.0
 30
0.0
 70
   128
 71
   593
 72
  -634
 73
   654
  0
VERTEX
  8
04ZCOL05-MAIN
  5
42F
 10
0.0
 20
0.0
 30
0.0
 70
   128
 71
   689
 72
  -654
 73
   634
  0
VERTEX
  8
04ZCOL05-MAIN
  5
430
 10
0.0
 20
0.0
 30
0.0
 70
   128
 71
   653
 72
  -593
 73
   655
  0
VERTEX
  8
04ZCOL05-MAIN
  5
431
 10
0.0
 20
0.0
 30
0.0
 70
   128
 71
   654
 72
  -655
 73
   593
  0
VERTEX
  8
04ZCOL05-MAIN
  5
432
 10
0.0
 20
0.0
 30
0.0
 70
   128
 71
   656
 72
  -653
 73
   710
  0
VERTEX
  8
04ZCOL05-MAIN
  5
433
 10
0.0
 20
0.0
 30
0.0
 70
   128
 71
   655
 72
  -710
 73
   653
  0
VERTEX
  8
04ZCOL05-MAIN
  5
434
 10
0.0
 20
0.0
 30
0.0
 70
   128
 71
   590
 72
  -652
 73
   706
  0
VERTEX
  8
04ZCOL05-MAIN
  5
435
 10
0.0
 20
0.0
 30
0.0
 70
   128
 71
   705
 72
  -706
 73
   652
  0
VERTEX
  8
04ZCOL05-MAIN
  5
436
 10
0.0
 20
0.0
 30
0.0
 70
   128
 71
   651
 72
  -650
 73
   649
  0
VERTEX
  8
04ZCOL05-MAIN
  5
437
 10
0.0
 20
0.0
 30
0.0
 70
   128
 71
   704
 72
  -649
 73
   650
  0
VERTEX
  8
04ZCOL05-MAIN
  5
438
 10
0.0
 20
0.0
 30
0.0
 70
   128
 71
   586
 72
  -651
 73
   647
  0
VERTEX
  8
04ZCOL05-MAIN
  5
439
 10
0.0
 20
0.0
 30
0.0
 70
   128
 71
   649
 72
  -647
 73
   651
  0
VERTEX
  8
04ZCOL05-MAIN
  5
43A
 10
0.0
 20
0.0
 30
0.0
 70
   128
 71
   648
 72
  -586
 73
   702
  0
VERTEX
  8
04ZCOL05-MAIN
  5
43B
 10
0.0
 20
0.0
 30
0.0
 70
   128
 71
   647
 72
  -702
 73
   586
  0
VERTEX
  8
04ZCOL05-MAIN
  5
43C
 10
0.0
 20
0.0
 30
0.0
 70
   128
 71
   585
 72
  -648
 73
   646
  0
VERTEX
  8
04ZCOL05-MAIN
  5
43D
 10
0.0
 20
0.0
 30
0.0
 70
   128
 71
   702
 72
  -646
 73
   648
  0
VERTEX
  8
04ZCOL05-MAIN
  5
43E
 10
0.0
 20
0.0
 30
0.0
 70
   128
 71
   584
 72
  -585
 73
   701
  0
VERTEX
  8
04ZCOL05-MAIN
  5
43F
 10
0.0
 20
0.0
 30
0.0
 70
   128
 71
   646
 72
  -701
 73
   585
  0
VERTEX
  8
04ZCOL05-MAIN
  5
440
 10
0.0
 20
0.0
 30
0.0
 70
   128
 71
   645
 72
  -584
 73
   698
  0
VERTEX
  8
04ZCOL05-MAIN
  5
441
 10
0.0
 20
0.0
 30
0.0
 70
   128
 71
   701
 72
  -698
 73
   584
  0
VERTEX
  8
04ZCOL05-MAIN
  5
442
 10
0.0
 20
0.0
 30
0.0
 70
   128
 71
   644
 72
  -645
 73
   699
  0
VERTEX
  8
04ZCOL05-MAIN
  5
443
 10
0.0
 20
0.0
 30
0.0
 70
   128
 71
   698
 72
  -699
 73
   645
  0
VERTEX
  8
04ZCOL05-MAIN
  5
444
 10
0.0
 20
0.0
 30
0.0
 70
   128
 71
   570
 72
  -644
 73
   691
  0
VERTEX
  8
04ZCOL05-MAIN
  5
445
 10
0.0
 20
0.0
 30
0.0
 70
   128
 71
   699
 72
  -691
 73
   644
  0
VERTEX
  8
04ZCOL05-MAIN
  5
446
 10
0.0
 20
0.0
 30
0.0
 70
   128
 71
   579
 72
  -573
 73
   643
  0
VERTEX
  8
04ZCOL05-MAIN
  5
447
 10
0.0
 20
0.0
 30
0.0
 70
   128
 71
   638
 72
  -643
 73
   573
  0
VERTEX
  8
04ZCOL05-MAIN
  5
448
 10
0.0
 20
0.0
 30
0.0
 70
   128
 71
   578
 72
  -579
 73
   692
  0
VERTEX
  8
04ZCOL05-MAIN
  5
449
 10
0.0
 20
0.0
 30
0.0
 70
   128
 71
   643
 72
  -692
 73
   579
  0
VERTEX
  8
04ZCOL05-MAIN
  5
44A
 10
0.0
 20
0.0
 30
0.0
 70
   128
 71
   640
 72
  -571
 73
   642
  0
VERTEX
  8
04ZCOL05-MAIN
  5
44B
 10
0.0
 20
0.0
 30
0.0
 70
   128
 71
   694
 72
  -642
 73
   571
  0
VERTEX
  8
04ZCOL05-MAIN
  5
44C
 10
0.0
 20
0.0
 30
0.0
 70
   128
 71
   574
 72
  -640
 73
   641
  0
VERTEX
  8
04ZCOL05-MAIN
  5
44D
 10
0.0
 20
0.0
 30
0.0
 70
   128
 71
   642
 72
  -641
 73
   640
  0
VERTEX
  8
04ZCOL05-MAIN
  5
44E
 10
0.0
 20
0.0
 30
0.0
 70
   128
 71
   637
 72
  -574
 73
   639
  0
VERTEX
  8
04ZCOL05-MAIN
  5
44F
 10
0.0
 20
0.0
 30
0.0
 70
   128
 71
   641
 72
  -639
 73
   574
  0
VERTEX
  8
04ZCOL05-MAIN
  5
450
 10
0.0
 20
0.0
 30
0.0
 70
   128
 71
   573
 72
  -637
 73
   638
  0
VERTEX
  8
04ZCOL05-MAIN
  5
451
 10
0.0
 20
0.0
 30
0.0
 70
   128
 71
   639
 72
  -638
 73
   637
  0
VERTEX
  8
04ZCOL05-MAIN
  5
452
 10
0.0
 20
0.0
 30
0.0
 70
   128
 71
   650
 72
  -578
 73
   704
  0
VERTEX
  8
04ZCOL05-MAIN
  5
453
 10
0.0
 20
0.0
 30
0.0
 70
   128
 71
   692
 72
  -704
 73
   578
  0
VERTEX
  8
04ZCOL05-MAIN
  5
454
 10
0.0
 20
0.0
 30
0.0
 70
   128
 71
   571
 72
  -635
 73
   694
  0
VERTEX
  8
04ZCOL05-MAIN
  5
455
 10
0.0
 20
0.0
 30
0.0
 70
   128
 71
   636
 72
  -694
 73
   635
  0
VERTEX
  8
04ZCOL05-MAIN
  5
456
 10
0.0
 20
0.0
 30
0.0
 70
   128
 71
   652
 72
  -570
 73
   705
  0
VERTEX
  8
04ZCOL05-MAIN
  5
457
 10
0.0
 20
0.0
 30
0.0
 70
   128
 71
   691
 72
  -705
 73
   570
  0
VERTEX
  8
04ZCOL05-MAIN
  5
458
 10
0.0
 20
0.0
 30
0.0
 70
   128
 71
   634
 72
  -590
 73
   689
  0
VERTEX
  8
04ZCOL05-MAIN
  5
459
 10
0.0
 20
0.0
 30
0.0
 70
   128
 71
   706
 72
  -689
 73
   590
  0
VERTEX
  8
04ZCOL05-MAIN
  5
45A
 10
0.0
 20
0.0
 30
0.0
 70
   128
 71
   568
 72
  -526
 73
   633
  0
VERTEX
  8
04ZCOL05-MAIN
  5
45B
 10
0.0
 20
0.0
 30
0.0
 70
   128
 71
   595
 72
  -633
 73
   526
  0
VERTEX
  8
04ZCOL05-MAIN
  5
45C
 10
0.0
 20
0.0
 30
0.0
 70
   128
 71
   567
 72
  -529
 73
   632
  0
VERTEX
  8
04ZCOL05-MAIN
  5
45D
 10
0.0
 20
0.0
 30
0.0
 70
   128
 71
   598
 72
  -632
 73
   529
  0
VERTEX
  8
04ZCOL05-MAIN
  5
45E
 10
0.0
 20
0.0
 30
0.0
 70
   128
 71
   565
 72
  -567
 73
   631
  0
VERTEX
  8
04ZCOL05-MAIN
  5
45F
 10
0.0
 20
0.0
 30
0.0
 70
   128
 71
   632
 72
  -631
 73
   567
  0
VERTEX
  8
04ZCOL05-MAIN
  5
460
 10
0.0
 20
0.0
 30
0.0
 70
   128
 71
   562
 72
  -565
 73
   684
  0
VERTEX
  8
04ZCOL05-MAIN
  5
461
 10
0.0
 20
0.0
 30
0.0
 70
   128
 71
   631
 72
  -684
 73
   565
  0
VERTEX
  8
04ZCOL05-MAIN
  5
462
 10
0.0
 20
0.0
 30
0.0
 70
   128
 71
   629
 72
  -562
 73
   630
  0
VERTEX
  8
04ZCOL05-MAIN
  5
463
 10
0.0
 20
0.0
 30
0.0
 70
   128
 71
   684
 72
  -630
 73
   562
  0
VERTEX
  8
04ZCOL05-MAIN
  5
464
 10
0.0
 20
0.0
 30
0.0
 70
   128
 71
   559
 72
  -629
 73
   683
  0
VERTEX
  8
04ZCOL05-MAIN
  5
465
 10
0.0
 20
0.0
 30
0.0
 70
   128
 71
   630
 72
  -683
 73
   629
  0
VERTEX
  8
04ZCOL05-MAIN
  5
466
 10
0.0
 20
0.0
 30
0.0
 70
   128
 71
   557
 72
  -559
 73
   628
  0
VERTEX
  8
04ZCOL05-MAIN
  5
467
 10
0.0
 20
0.0
 30
0.0
 70
   128
 71
   683
 72
  -628
 73
   559
  0
VERTEX
  8
04ZCOL05-MAIN
  5
468
 10
0.0
 20
0.0
 30
0.0
 70
   128
 71
   556
 72
  -557
 73
   681
  0
VERTEX
  8
04ZCOL05-MAIN
  5
469
 10
0.0
 20
0.0
 30
0.0
 70
   128
 71
   628
 72
  -681
 73
   557
  0
VERTEX
  8
04ZCOL05-MAIN
  5
46A
 10
0.0
 20
0.0
 30
0.0
 70
   128
 71
   552
 72
  -556
 73
   678
  0
VERTEX
  8
04ZCOL05-MAIN
  5
46B
 10
0.0
 20
0.0
 30
0.0
 70
   128
 71
   681
 72
  -678
 73
   556
  0
VERTEX
  8
04ZCOL05-MAIN
  5
46C
 10
0.0
 20
0.0
 30
0.0
 70
   128
 71
   551
 72
  -552
 73
   679
  0
VERTEX
  8
04ZCOL05-MAIN
  5
46D
 10
0.0
 20
0.0
 30
0.0
 70
   128
 71
   678
 72
  -679
 73
   552
  0
VERTEX
  8
04ZCOL05-MAIN
  5
46E
 10
0.0
 20
0.0
 30
0.0
 70
   128
 71
   626
 72
  -551
 73
   677
  0
VERTEX
  8
04ZCOL05-MAIN
  5
46F
 10
0.0
 20
0.0
 30
0.0
 70
   128
 71
   679
 72
  -677
 73
   551
  0
VERTEX
  8
04ZCOL05-MAIN
  5
470
 10
0.0
 20
0.0
 30
0.0
 70
   128
 71
   627
 72
  -626
 73
   625
  0
VERTEX
  8
04ZCOL05-MAIN
  5
471
 10
0.0
 20
0.0
 30
0.0
 70
   128
 71
   677
 72
  -625
 73
   626
  0
VERTEX
  8
04ZCOL05-MAIN
  5
472
 10
0.0
 20
0.0
 30
0.0
 70
   128
 71
   624
 72
  -627
 73
   674
  0
VERTEX
  8
04ZCOL05-MAIN
  5
473
 10
0.0
 20
0.0
 30
0.0
 70
   128
 71
   625
 72
  -674
 73
   627
  0
VERTEX
  8
04ZCOL05-MAIN
  5
474
 10
0.0
 20
0.0
 30
0.0
 70
   128
 71
   623
 72
  -624
 73
   594
  0
VERTEX
  8
04ZCOL05-MAIN
  5
475
 10
0.0
 20
0.0
 30
0.0
 70
   128
 71
   674
 72
  -594
 73
   624
  0
VERTEX
  8
04ZCOL05-MAIN
  5
476
 10
0.0
 20
0.0
 30
0.0
 70
   128
 71
   549
 72
  -621
 73
   622
  0
VERTEX
  8
04ZCOL05-MAIN
  5
477
 10
0.0
 20
0.0
 30
0.0
 70
   128
 71
   673
 72
  -622
 73
   621
  0
VERTEX
  8
04ZCOL05-MAIN
  5
478
 10
0.0
 20
0.0
 30
0.0
 70
   128
 71
   547
 72
  -549
 73
   620
  0
VERTEX
  8
04ZCOL05-MAIN
  5
479
 10
0.0
 20
0.0
 30
0.0
 70
   128
 71
   622
 72
  -620
 73
   549
  0
VERTEX
  8
04ZCOL05-MAIN
  5
47A
 10
0.0
 20
0.0
 30
0.0
 70
   128
 71
   618
 72
  -547
 73
   619
  0
VERTEX
  8
04ZCOL05-MAIN
  5
47B
 10
0.0
 20
0.0
 30
0.0
 70
   128
 71
   620
 72
  -619
 73
   547
  0
VERTEX
  8
04ZCOL05-MAIN
  5
47C
 10
0.0
 20
0.0
 30
0.0
 70
   128
 71
   616
 72
  -618
 73
   617
  0
VERTEX
  8
04ZCOL05-MAIN
  5
47D
 10
0.0
 20
0.0
 30
0.0
 70
   128
 71
   619
 72
  -617
 73
   618
  0
VERTEX
  8
04ZCOL05-MAIN
  5
47E
 10
0.0
 20
0.0
 30
0.0
 70
   128
 71
   615
 72
  -616
 73
   670
  0
VERTEX
  8
04ZCOL05-MAIN
  5
47F
 10
0.0
 20
0.0
 30
0.0
 70
   128
 71
   617
 72
  -670
 73
   616
  0
VERTEX
  8
04ZCOL05-MAIN
  5
480
 10
0.0
 20
0.0
 30
0.0
 70
   128
 71
   545
 72
  -615
 73
   668
  0
VERTEX
  8
04ZCOL05-MAIN
  5
481
 10
0.0
 20
0.0
 30
0.0
 70
   128
 71
   670
 72
  -668
 73
   615
  0
VERTEX
  8
04ZCOL05-MAIN
  5
482
 10
0.0
 20
0.0
 30
0.0
 70
   128
 71
   614
 72
  -545
 73
   666
  0
VERTEX
  8
04ZCOL05-MAIN
  5
483
 10
0.0
 20
0.0
 30
0.0
 70
   128
 71
   668
 72
  -666
 73
   545
  0
VERTEX
  8
04ZCOL05-MAIN
  5
484
 10
0.0
 20
0.0
 30
0.0
 70
   128
 71
   612
 72
  -614
 73
   611
  0
VERTEX
  8
04ZCOL05-MAIN
  5
485
 10
0.0
 20
0.0
 30
0.0
 70
   128
 71
   666
 72
  -611
 73
   614
  0
VERTEX
  8
04ZCOL05-MAIN
  5
486
 10
0.0
 20
0.0
 30
0.0
 70
   128
 71
   613
 72
  -612
 73
   609
  0
VERTEX
  8
04ZCOL05-MAIN
  5
487
 10
0.0
 20
0.0
 30
0.0
 70
   128
 71
   611
 72
  -609
 73
   612
  0
VERTEX
  8
04ZCOL05-MAIN
  5
488
 10
0.0
 20
0.0
 30
0.0
 70
   128
 71
   610
 72
  -613
 73
   608
  0
VERTEX
  8
04ZCOL05-MAIN
  5
489
 10
0.0
 20
0.0
 30
0.0
 70
   128
 71
   609
 72
  -608
 73
   613
  0
VERTEX
  8
04ZCOL05-MAIN
  5
48A
 10
0.0
 20
0.0
 30
0.0
 70
   128
 71
   605
 72
  -610
 73
   607
  0
VERTEX
  8
04ZCOL05-MAIN
  5
48B
 10
0.0
 20
0.0
 30
0.0
 70
   128
 71
   608
 72
  -607
 73
   610
  0
VERTEX
  8
04ZCOL05-MAIN
  5
48C
 10
0.0
 20
0.0
 30
0.0
 70
   128
 71
   606
 72
  -605
 73
   662
  0
VERTEX
  8
04ZCOL05-MAIN
  5
48D
 10
0.0
 20
0.0
 30
0.0
 70
   128
 71
   607
 72
  -662
 73
   605
  0
VERTEX
  8
04ZCOL05-MAIN
  5
48E
 10
0.0
 20
0.0
 30
0.0
 70
   128
 71
   541
 72
  -606
 73
   663
  0
VERTEX
  8
04ZCOL05-MAIN
  5
48F
 10
0.0
 20
0.0
 30
0.0
 70
   128
 71
   662
 72
  -663
 73
   606
  0
VERTEX
  8
04ZCOL05-MAIN
  5
490
 10
0.0
 20
0.0
 30
0.0
 70
   128
 71
   539
 72
  -541
 73
   660
  0
VERTEX
  8
04ZCOL05-MAIN
  5
491
 10
0.0
 20
0.0
 30
0.0
 70
   128
 71
   663
 72
  -660
 73
   541
  0
VERTEX
  8
04ZCOL05-MAIN
  5
492
 10
0.0
 20
0.0
 30
0.0
 70
   128
 71
   604
 72
  -539
 73
   661
  0
VERTEX
  8
04ZCOL05-MAIN
  5
493
 10
0.0
 20
0.0
 30
0.0
 70
   128
 71
   660
 72
  -661
 73
   539
  0
VERTEX
  8
04ZCOL05-MAIN
  5
494
 10
0.0
 20
0.0
 30
0.0
 70
   128
 71
   602
 72
  -604
 73
   603
  0
VERTEX
  8
04ZCOL05-MAIN
  5
495
 10
0.0
 20
0.0
 30
0.0
 70
   128
 71
   661
 72
  -603
 73
   604
  0
VERTEX
  8
04ZCOL05-MAIN
  5
496
 10
0.0
 20
0.0
 30
0.0
 70
   128
 71
   537
 72
  -602
 73
   659
  0
VERTEX
  8
04ZCOL05-MAIN
  5
497
 10
0.0
 20
0.0
 30
0.0
 70
   128
 71
   603
 72
  -659
 73
   602
  0
VERTEX
  8
04ZCOL05-MAIN
  5
498
 10
0.0
 20
0.0
 30
0.0
 70
   128
 71
   535
 72
  -537
 73
   601
  0
VERTEX
  8
04ZCOL05-MAIN
  5
499
 10
0.0
 20
0.0
 30
0.0
 70
   128
 71
   659
 72
  -601
 73
   537
  0
VERTEX
  8
04ZCOL05-MAIN
  5
49A
 10
0.0
 20
0.0
 30
0.0
 70
   128
 71
   536
 72
  -535
 73
   599
  0
VERTEX
  8
04ZCOL05-MAIN
  5
49B
 10
0.0
 20
0.0
 30
0.0
 70
   128
 71
   601
 72
  -599
 73
   535
  0
VERTEX
  8
04ZCOL05-MAIN
  5
49C
 10
0.0
 20
0.0
 30
0.0
 70
   128
 71
   597
 72
  -536
 73
   600
  0
VERTEX
  8
04ZCOL05-MAIN
  5
49D
 10
0.0
 20
0.0
 30
0.0
 70
   128
 71
   599
 72
  -600
 73
   536
  0
VERTEX
  8
04ZCOL05-MAIN
  5
49E
 10
0.0
 20
0.0
 30
0.0
 70
   128
 71
   621
 72
  -527
 73
   673
  0
VERTEX
  8
04ZCOL05-MAIN
  5
49F
 10
0.0
 20
0.0
 30
0.0
 70
   128
 71
   596
 72
  -673
 73
   527
  0
VERTEX
  8
04ZCOL05-MAIN
  5
4A0
 10
0.0
 20
0.0
 30
0.0
 70
   128
 71
   529
 72
  -597
 73
   598
  0
VERTEX
  8
04ZCOL05-MAIN
  5
4A1
 10
0.0
 20
0.0
 30
0.0
 70
   128
 71
   600
 72
  -598
 73
   597
  0
VERTEX
  8
04ZCOL05-MAIN
  5
4A2
 10
0.0
 20
0.0
 30
0.0
 70
   128
 71
   527
 72
  -524
 73
   596
  0
VERTEX
  8
04ZCOL05-MAIN
  5
4A3
 10
0.0
 20
0.0
 30
0.0
 70
   128
 71
   656
 72
  -596
 73
   524
  0
VERTEX
  8
04ZCOL05-MAIN
  5
4A4
 10
0.0
 20
0.0
 30
0.0
 70
   128
 71
   526
 72
  -623
 73
   595
  0
VERTEX
  8
04ZCOL05-MAIN
  5
4A5
 10
0.0
 20
0.0
 30
0.0
 70
   128
 71
   594
 72
  -595
 73
   623
  0
VERTEX
  8
04ZCOL05-MAIN
  5
4A6
 10
0.0
 20
0.0
 30
0.0
 70
   128
 71
   525
 72
  -592
 73
   593
  0
VERTEX
  8
04ZCOL05-MAIN
  5
4A7
 10
0.0
 20
0.0
 30
0.0
 70
   128
 71
   634
 72
  -593
 73
   592
  0
VERTEX
  8
04ZCOL05-MAIN
  5
4A8
 10
0.0
 20
0.0
 30
0.0
 70
   128
 71
   591
 72
  -525
 73
   653
  0
VERTEX
  8
04ZCOL05-MAIN
  5
4A9
 10
0.0
 20
0.0
 30
0.0
 70
   128
 71
   593
 72
  -653
 73
   525
  0
VERTEX
  8
04ZCOL05-MAIN
  5
4AA
 10
0.0
 20
0.0
 30
0.0
 70
   128
 71
   524
 72
  -591
 73
   656
  0
VERTEX
  8
04ZCOL05-MAIN
  5
4AB
 10
0.0
 20
0.0
 30
0.0
 70
   128
 71
   653
 72
  -656
 73
   591
  0
VERTEX
  8
04ZCOL05-MAIN
  5
4AC
 10
0.0
 20
0.0
 30
0.0
 70
   128
 71
   569
 72
  -509
 73
   590
  0
VERTEX
  8
04ZCOL05-MAIN
  5
4AD
 10
0.0
 20
0.0
 30
0.0
 70
   128
 71
   652
 72
  -590
 73
   509
  0
VERTEX
  8
04ZCOL05-MAIN
  5
4AE
 10
0.0
 20
0.0
 30
0.0
 70
   128
 71
   589
 72
  -588
 73
   651
  0
VERTEX
  8
04ZCOL05-MAIN
  5
4AF
 10
0.0
 20
0.0
 30
0.0
 70
   128
 71
   650
 72
  -651
 73
   588
  0
VERTEX
  8
04ZCOL05-MAIN
  5
4B0
 10
0.0
 20
0.0
 30
0.0
 70
   128
 71
   587
 72
  -589
 73
   586
  0
VERTEX
  8
04ZCOL05-MAIN
  5
4B1
 10
0.0
 20
0.0
 30
0.0
 70
   128
 71
   651
 72
  -586
 73
   589
  0
VERTEX
  8
04ZCOL05-MAIN
  5
4B2
 10
0.0
 20
0.0
 30
0.0
 70
   128
 71
   520
 72
  -587
 73
   648
  0
VERTEX
  8
04ZCOL05-MAIN
  5
4B3
 10
0.0
 20
0.0
 30
0.0
 70
   128
 71
   586
 72
  -648
 73
   587
  0
VERTEX
  8
04ZCOL05-MAIN
  5
4B4
 10
0.0
 20
0.0
 30
0.0
 70
   128
 71
   583
 72
  -520
 73
   585
  0
VERTEX
  8
04ZCOL05-MAIN
  5
4B5
 10
0.0
 20
0.0
 30
0.0
 70
   128
 71
   648
 72
  -585
 73
   520
  0
VERTEX
  8
04ZCOL05-MAIN
  5
4B6
 10
0.0
 20
0.0
 30
0.0
 70
   128
 71
   518
 72
  -583
 73
   584
  0
VERTEX
  8
04ZCOL05-MAIN
  5
4B7
 10
0.0
 20
0.0
 30
0.0
 70
   128
 71
   585
 72
  -584
 73
   583
  0
VERTEX
  8
04ZCOL05-MAIN
  5
4B8
 10
0.0
 20
0.0
 30
0.0
 70
   128
 71
   582
 72
  -518
 73
   645
  0
VERTEX
  8
04ZCOL05-MAIN
  5
4B9
 10
0.0
 20
0.0
 30
0.0
 70
   128
 71
   584
 72
  -645
 73
   518
  0
VERTEX
  8
04ZCOL05-MAIN
  5
4BA
 10
0.0
 20
0.0
 30
0.0
 70
   128
 71
   581
 72
  -582
 73
   644
  0
VERTEX
  8
04ZCOL05-MAIN
  5
4BB
 10
0.0
 20
0.0
 30
0.0
 70
   128
 71
   645
 72
  -644
 73
   582
  0
VERTEX
  8
04ZCOL05-MAIN
  5
4BC
 10
0.0
 20
0.0
 30
0.0
 70
   128
 71
   515
 72
  -581
 73
   570
  0
VERTEX
  8
04ZCOL05-MAIN
  5
4BD
 10
0.0
 20
0.0
 30
0.0
 70
   128
 71
   644
 72
  -570
 73
   581
  0
VERTEX
  8
04ZCOL05-MAIN
  5
4BE
 10
0.0
 20
0.0
 30
0.0
 70
   128
 71
   577
 72
  -580
 73
   579
  0
VERTEX
  8
04ZCOL05-MAIN
  5
4BF
 10
0.0
 20
0.0
 30
0.0
 70
   128
 71
   573
 72
  -579
 73
   580
  0
VERTEX
  8
04ZCOL05-MAIN
  5
4C0
 10
0.0
 20
0.0
 30
0.0
 70
   128
 71
   512
 72
  -577
 73
   578
  0
VERTEX
  8
04ZCOL05-MAIN
  5
4C1
 10
0.0
 20
0.0
 30
0.0
 70
   128
 71
   579
 72
  -578
 73
   577
  0
VERTEX
  8
04ZCOL05-MAIN
  5
4C2
 10
0.0
 20
0.0
 30
0.0
 70
   128
 71
   576
 72
  -511
 73
   640
  0
VERTEX
  8
04ZCOL05-MAIN
  5
4C3
 10
0.0
 20
0.0
 30
0.0
 70
   128
 71
   571
 72
  -640
 73
   511
  0
VERTEX
  8
04ZCOL05-MAIN
  5
4C4
 10
0.0
 20
0.0
 30
0.0
 70
   128
 71
   575
 72
  -576
 73
   574
  0
VERTEX
  8
04ZCOL05-MAIN
  5
4C5
 10
0.0
 20
0.0
 30
0.0
 70
   128
 71
   640
 72
  -574
 73
   576
  0
VERTEX
  8
04ZCOL05-MAIN
  5
4C6
 10
0.0
 20
0.0
 30
0.0
 70
   128
 71
   572
 72
  -575
 73
   637
  0
VERTEX
  8
04ZCOL05-MAIN
  5
4C7
 10
0.0
 20
0.0
 30
0.0
 70
   128
 71
   574
 72
  -637
 73
   575
  0
VERTEX
  8
04ZCOL05-MAIN
  5
4C8
 10
0.0
 20
0.0
 30
0.0
 70
   128
 71
   580
 72
  -572
 73
   573
  0
VERTEX
  8
04ZCOL05-MAIN
  5
4C9
 10
0.0
 20
0.0
 30
0.0
 70
   128
 71
   637
 72
  -573
 73
   572
  0
VERTEX
  8
04ZCOL05-MAIN
  5
4CA
 10
0.0
 20
0.0
 30
0.0
 70
   128
 71
   588
 72
  -512
 73
   650
  0
VERTEX
  8
04ZCOL05-MAIN
  5
4CB
 10
0.0
 20
0.0
 30
0.0
 70
   128
 71
   578
 72
  -650
 73
   512
  0
VERTEX
  8
04ZCOL05-MAIN
  5
4CC
 10
0.0
 20
0.0
 30
0.0
 70
   128
 71
   511
 72
  -510
 73
   571
  0
VERTEX
  8
04ZCOL05-MAIN
  5
4CD
 10
0.0
 20
0.0
 30
0.0
 70
   128
 71
   635
 72
  -571
 73
   510
  0
VERTEX
  8
04ZCOL05-MAIN
  5
4CE
 10
0.0
 20
0.0
 30
0.0
 70
   128
 71
   509
 72
  -515
 73
   652
  0
VERTEX
  8
04ZCOL05-MAIN
  5
4CF
 10
0.0
 20
0.0
 30
0.0
 70
   128
 71
   570
 72
  -652
 73
   515
  0
VERTEX
  8
04ZCOL05-MAIN
  5
4D0
 10
0.0
 20
0.0
 30
0.0
 70
   128
 71
   592
 72
  -569
 73
   634
  0
VERTEX
  8
04ZCOL05-MAIN
  5
4D1
 10
0.0
 20
0.0
 30
0.0
 70
   128
 71
   590
 72
  -634
 73
   569
  0
VERTEX
  8
04ZCOL05-MAIN
  5
4D2
 10
0.0
 20
0.0
 30
0.0
 70
   128
 71
   507
 72
  -475
 73
   568
  0
VERTEX
  8
04ZCOL05-MAIN
  5
4D3
 10
0.0
 20
0.0
 30
0.0
 70
   128
 71
   526
 72
  -568
 73
   475
  0
VERTEX
  8
04ZCOL05-MAIN
  5
4D4
 10
0.0
 20
0.0
 30
0.0
 70
   128
 71
   564
 72
  -530
 73
   567
  0
VERTEX
  8
04ZCOL05-MAIN
  5
4D5
 10
0.0
 20
0.0
 30
0.0
 70
   128
 71
   529
 72
  -567
 73
   530
  0
VERTEX
  8
04ZCOL05-MAIN
  5
4D6
 10
0.0
 20
0.0
 30
0.0
 70
   128
 71
   566
 72
  -564
 73
   565
  0
VERTEX
  8
04ZCOL05-MAIN
  5
4D7
 10
0.0
 20
0.0
 30
0.0
 70
   128
 71
   567
 72
  -565
 73
   564
  0
VERTEX
  8
04ZCOL05-MAIN
  5
4D8
 10
0.0
 20
0.0
 30
0.0
 70
   128
 71
   563
 72
  -566
 73
   562
  0
VERTEX
  8
04ZCOL05-MAIN
  5
4D9
 10
0.0
 20
0.0
 30
0.0
 70
   128
 71
   565
 72
  -562
 73
   566
  0
VERTEX
  8
04ZCOL05-MAIN
  5
4DA
 10
0.0
 20
0.0
 30
0.0
 70
   128
 71
   560
 72
  -563
 73
   629
  0
VERTEX
  8
04ZCOL05-MAIN
  5
4DB
 10
0.0
 20
0.0
 30
0.0
 70
   128
 71
   562
 72
  -629
 73
   563
  0
VERTEX
  8
04ZCOL05-MAIN
  5
4DC
 10
0.0
 20
0.0
 30
0.0
 70
   128
 71
   561
 72
  -560
 73
   559
  0
VERTEX
  8
04ZCOL05-MAIN
  5
4DD
 10
0.0
 20
0.0
 30
0.0
 70
   128
 71
   629
 72
  -559
 73
   560
  0
VERTEX
  8
04ZCOL05-MAIN
  5
4DE
 10
0.0
 20
0.0
 30
0.0
 70
   128
 71
   558
 72
  -561
 73
   557
  0
VERTEX
  8
04ZCOL05-MAIN
  5
4DF
 10
0.0
 20
0.0
 30
0.0
 70
   128
 71
   559
 72
  -557
 73
   561
  0
VERTEX
  8
04ZCOL05-MAIN
  5
4E0
 10
0.0
 20
0.0
 30
0.0
 70
   128
 71
   555
 72
  -558
 73
   556
  0
VERTEX
  8
04ZCOL05-MAIN
  5
4E1
 10
0.0
 20
0.0
 30
0.0
 70
   128
 71
   557
 72
  -556
 73
   558
  0
VERTEX
  8
04ZCOL05-MAIN
  5
4E2
 10
0.0
 20
0.0
 30
0.0
 70
   128
 71
   553
 72
  -555
 73
   552
  0
VERTEX
  8
04ZCOL05-MAIN
  5
4E3
 10
0.0
 20
0.0
 30
0.0
 70
   128
 71
   556
 72
  -552
 73
   555
  0
VERTEX
  8
04ZCOL05-MAIN
  5
4E4
 10
0.0
 20
0.0
 30
0.0
 70
   128
 71
   554
 72
  -553
 73
   551
  0
VERTEX
  8
04ZCOL05-MAIN
  5
4E5
 10
0.0
 20
0.0
 30
0.0
 70
   128
 71
   552
 72
  -551
 73
   553
  0
VERTEX
  8
04ZCOL05-MAIN
  5
4E6
 10
0.0
 20
0.0
 30
0.0
 70
   128
 71
   504
 72
  -554
 73
   626
  0
VERTEX
  8
04ZCOL05-MAIN
  5
4E7
 10
0.0
 20
0.0
 30
0.0
 70
   128
 71
   551
 72
  -626
 73
   554
  0
VERTEX
  8
04ZCOL05-MAIN
  5
4E8
 10
0.0
 20
0.0
 30
0.0
 70
   128
 71
   503
 72
  -504
 73
   627
  0
VERTEX
  8
04ZCOL05-MAIN
  5
4E9
 10
0.0
 20
0.0
 30
0.0
 70
   128
 71
   626
 72
  -627
 73
   504
  0
VERTEX
  8
04ZCOL05-MAIN
  5
4EA
 10
0.0
 20
0.0
 30
0.0
 70
   128
 71
   550
 72
  -503
 73
   624
  0
VERTEX
  8
04ZCOL05-MAIN
  5
4EB
 10
0.0
 20
0.0
 30
0.0
 70
   128
 71
   627
 72
  -624
 73
   503
  0
VERTEX
  8
04ZCOL05-MAIN
  5
4EC
 10
0.0
 20
0.0
 30
0.0
 70
   128
 71
   476
 72
  -550
 73
   623
  0
VERTEX
  8
04ZCOL05-MAIN
  5
4ED
 10
0.0
 20
0.0
 30
0.0
 70
   128
 71
   624
 72
  -623
 73
   550
  0
VERTEX
  8
04ZCOL05-MAIN
  5
4EE
 10
0.0
 20
0.0
 30
0.0
 70
   128
 71
   500
 72
  -532
 73
   549
  0
VERTEX
  8
04ZCOL05-MAIN
  5
4EF
 10
0.0
 20
0.0
 30
0.0
 70
   128
 71
   621
 72
  -549
 73
   532
  0
VERTEX
  8
04ZCOL05-MAIN
  5
4F0
 10
0.0
 20
0.0
 30
0.0
 70
   128
 71
   548
 72
  -500
 73
   547
  0
VERTEX
  8
04ZCOL05-MAIN
  5
4F1
 10
0.0
 20
0.0
 30
0.0
 70
   128
 71
   549
 72
  -547
 73
   500
  0
VERTEX
  8
04ZCOL05-MAIN
  5
4F2
 10
0.0
 20
0.0
 30
0.0
 70
   128
 71
   546
 72
  -548
 73
   618
  0
VERTEX
  8
04ZCOL05-MAIN
  5
4F3
 10
0.0
 20
0.0
 30
0.0
 70
   128
 71
   547
 72
  -618
 73
   548
  0
VERTEX
  8
04ZCOL05-MAIN
  5
4F4
 10
0.0
 20
0.0
 30
0.0
 70
   128
 71
   499
 72
  -546
 73
   616
  0
VERTEX
  8
04ZCOL05-MAIN
  5
4F5
 10
0.0
 20
0.0
 30
0.0
 70
   128
 71
   618
 72
  -616
 73
   546
  0
VERTEX
  8
04ZCOL05-MAIN
  5
4F6
 10
0.0
 20
0.0
 30
0.0
 70
   128
 71
   497
 72
  -499
 73
   615
  0
VERTEX
  8
04ZCOL05-MAIN
  5
4F7
 10
0.0
 20
0.0
 30
0.0
 70
   128
 71
   616
 72
  -615
 73
   499
  0
VERTEX
  8
04ZCOL05-MAIN
  5
4F8
 10
0.0
 20
0.0
 30
0.0
 70
   128
 71
   496
 72
  -497
 73
   545
  0
VERTEX
  8
04ZCOL05-MAIN
  5
4F9
 10
0.0
 20
0.0
 30
0.0
 70
   128
 71
   615
 72
  -545
 73
   497
  0
VERTEX
  8
04ZCOL05-MAIN
  5
4FA
 10
0.0
 20
0.0
 30
0.0
 70
   128
 71
   492
 72
  -496
 73
   614
  0
VERTEX
  8
04ZCOL05-MAIN
  5
4FB
 10
0.0
 20
0.0
 30
0.0
 70
   128
 71
   545
 72
  -614
 73
   496
  0
VERTEX
  8
04ZCOL05-MAIN
  5
4FC
 10
0.0
 20
0.0
 30
0.0
 70
   128
 71
   544
 72
  -492
 73
   612
  0
VERTEX
  8
04ZCOL05-MAIN
  5
4FD
 10
0.0
 20
0.0
 30
0.0
 70
   128
 71
   614
 72
  -612
 73
   492
  0
VERTEX
  8
04ZCOL05-MAIN
  5
4FE
 10
0.0
 20
0.0
 30
0.0
 70
   128
 71
   543
 72
  -544
 73
   613
  0
VERTEX
  8
04ZCOL05-MAIN
  5
4FF
 10
0.0
 20
0.0
 30
0.0
 70
   128
 71
   612
 72
  -613
 73
   544
  0
VERTEX
  8
04ZCOL05-MAIN
  5
500
 10
0.0
 20
0.0
 30
0.0
 70
   128
 71
   542
 72
  -543
 73
   610
  0
VERTEX
  8
04ZCOL05-MAIN
  5
501
 10
0.0
 20
0.0
 30
0.0
 70
   128
 71
   613
 72
  -610
 73
   543
  0
VERTEX
  8
04ZCOL05-MAIN
  5
502
 10
0.0
 20
0.0
 30
0.0
 70
   128
 71
   489
 72
  -542
 73
   605
  0
VERTEX
  8
04ZCOL05-MAIN
  5
503
 10
0.0
 20
0.0
 30
0.0
 70
   128
 71
   610
 72
  -605
 73
   542
  0
VERTEX
  8
04ZCOL05-MAIN
  5
504
 10
0.0
 20
0.0
 30
0.0
 70
   128
 71
   540
 72
  -489
 73
   606
  0
VERTEX
  8
04ZCOL05-MAIN
  5
505
 10
0.0
 20
0.0
 30
0.0
 70
   128
 71
   605
 72
  -606
 73
   489
  0
VERTEX
  8
04ZCOL05-MAIN
  5
506
 10
0.0
 20
0.0
 30
0.0
 70
   128
 71
   488
 72
  -540
 73
   541
  0
VERTEX
  8
04ZCOL05-MAIN
  5
507
 10
0.0
 20
0.0
 30
0.0
 70
   128
 71
   606
 72
  -541
 73
   540
  0
VERTEX
  8
04ZCOL05-MAIN
  5
508
 10
0.0
 20
0.0
 30
0.0
 70
   128
 71
   486
 72
  -488
 73
   539
  0
VERTEX
  8
04ZCOL05-MAIN
  5
509
 10
0.0
 20
0.0
 30
0.0
 70
   128
 71
   541
 72
  -539
 73
   488
  0
VERTEX
  8
04ZCOL05-MAIN
  5
50A
 10
0.0
 20
0.0
 30
0.0
 70
   128
 71
   538
 72
  -486
 73
   604
  0
VERTEX
  8
04ZCOL05-MAIN
  5
50B
 10
0.0
 20
0.0
 30
0.0
 70
   128
 71
   539
 72
  -604
 73
   486
  0
VERTEX
  8
04ZCOL05-MAIN
  5
50C
 10
0.0
 20
0.0
 30
0.0
 70
   128
 71
   485
 72
  -538
 73
   602
  0
VERTEX
  8
04ZCOL05-MAIN
  5
50D
 10
0.0
 20
0.0
 30
0.0
 70
   128
 71
   604
 72
  -602
 73
   538
  0
VERTEX
  8
04ZCOL05-MAIN
  5
50E
 10
0.0
 20
0.0
 30
0.0
 70
   128
 71
   483
 72
  -485
 73
   537
  0
VERTEX
  8
04ZCOL05-MAIN
  5
50F
 10
0.0
 20
0.0
 30
0.0
 70
   128
 71
   602
 72
  -537
 73
   485
  0
VERTEX
  8
04ZCOL05-MAIN
  5
510
 10
0.0
 20
0.0
 30
0.0
 70
   128
 71
   534
 72
  -483
 73
   535
  0
VERTEX
  8
04ZCOL05-MAIN
  5
511
 10
0.0
 20
0.0
 30
0.0
 70
   128
 71
   537
 72
  -535
 73
   483
  0
VERTEX
  8
04ZCOL05-MAIN
  5
512
 10
0.0
 20
0.0
 30
0.0
 70
   128
 71
   533
 72
  -534
 73
   536
  0
VERTEX
  8
04ZCOL05-MAIN
  5
513
 10
0.0
 20
0.0
 30
0.0
 70
   128
 71
   535
 72
  -536
 73
   534
  0
VERTEX
  8
04ZCOL05-MAIN
  5
514
 10
0.0
 20
0.0
 30
0.0
 70
   128
 71
   481
 72
  -533
 73
   597
  0
VERTEX
  8
04ZCOL05-MAIN
  5
515
 10
0.0
 20
0.0
 30
0.0
 70
   128
 71
   536
 72
  -597
 73
   533
  0
VERTEX
  8
04ZCOL05-MAIN
  5
516
 10
0.0
 20
0.0
 30
0.0
 70
   128
 71
   532
 72
  -531
 73
   621
  0
VERTEX
  8
04ZCOL05-MAIN
  5
517
 10
0.0
 20
0.0
 30
0.0
 70
   128
 71
   527
 72
  -621
 73
   531
  0
VERTEX
  8
04ZCOL05-MAIN
  5
518
 10
0.0
 20
0.0
 30
0.0
 70
   128
 71
   530
 72
  -481
 73
   529
  0
VERTEX
  8
04ZCOL05-MAIN
  5
519
 10
0.0
 20
0.0
 30
0.0
 70
   128
 71
   597
 72
  -529
 73
   481
  0
VERTEX
  8
04ZCOL05-MAIN
  5
51A
 10
0.0
 20
0.0
 30
0.0
 70
   128
 71
   531
 72
  -528
 73
   527
  0
VERTEX
  8
04ZCOL05-MAIN
  5
51B
 10
0.0
 20
0.0
 30
0.0
 70
   128
 71
   524
 72
  -527
 73
   528
  0
VERTEX
  8
04ZCOL05-MAIN
  5
51C
 10
0.0
 20
0.0
 30
0.0
 70
   128
 71
   475
 72
  -476
 73
   526
  0
VERTEX
  8
04ZCOL05-MAIN
  5
51D
 10
0.0
 20
0.0
 30
0.0
 70
   128
 71
   623
 72
  -526
 73
   476
  0
VERTEX
  8
04ZCOL05-MAIN
  5
51E
 10
0.0
 20
0.0
 30
0.0
 70
   128
 71
   472
 72
  -473
 73
   525
  0
VERTEX
  8
04ZCOL05-MAIN
  5
51F
 10
0.0
 20
0.0
 30
0.0
 70
   128
 71
   592
 72
  -525
 73
   473
  0
VERTEX
  8
04ZCOL05-MAIN
  5
520
 10
0.0
 20
0.0
 30
0.0
 70
   128
 71
   469
 72
  -472
 73
   591
  0
VERTEX
  8
04ZCOL05-MAIN
  5
521
 10
0.0
 20
0.0
 30
0.0
 70
   128
 71
   525
 72
  -591
 73
   472
  0
VERTEX
  8
04ZCOL05-MAIN
  5
522
 10
0.0
 20
0.0
 30
0.0
 70
   128
 71
   528
 72
  -469
 73
   524
  0
VERTEX
  8
04ZCOL05-MAIN
  5
523
 10
0.0
 20
0.0
 30
0.0
 70
   128
 71
   591
 72
  -524
 73
   469
  0
VERTEX
  8
04ZCOL05-MAIN
  5
524
 10
0.0
 20
0.0
 30
0.0
 70
   128
 71
   447
 72
  -523
 73
   569
  0
VERTEX
  8
04ZCOL05-MAIN
  5
525
 10
0.0
 20
0.0
 30
0.0
 70
   128
 71
   509
 72
  -569
 73
   523
  0
VERTEX
  8
04ZCOL05-MAIN
  5
526
 10
0.0
 20
0.0
 30
0.0
 70
   128
 71
   465
 72
  -522
 73
   589
  0
VERTEX
  8
04ZCOL05-MAIN
  5
527
 10
0.0
 20
0.0
 30
0.0
 70
   128
 71
   588
 72
  -589
 73
   522
  0
VERTEX
  8
04ZCOL05-MAIN
  5
528
 10
0.0
 20
0.0
 30
0.0
 70
   128
 71
   466
 72
  -465
 73
   587
  0
VERTEX
  8
04ZCOL05-MAIN
  5
529
 10
0.0
 20
0.0
 30
0.0
 70
   128
 71
   589
 72
  -587
 73
   465
  0
VERTEX
  8
04ZCOL05-MAIN
  5
52A
 10
0.0
 20
0.0
 30
0.0
 70
   128
 71
   521
 72
  -466
 73
   520
  0
VERTEX
  8
04ZCOL05-MAIN
  5
52B
 10
0.0
 20
0.0
 30
0.0
 70
   128
 71
   587
 72
  -520
 73
   466
  0
VERTEX
  8
04ZCOL05-MAIN
  5
52C
 10
0.0
 20
0.0
 30
0.0
 70
   128
 71
   519
 72
  -521
 73
   583
  0
VERTEX
  8
04ZCOL05-MAIN
  5
52D
 10
0.0
 20
0.0
 30
0.0
 70
   128
 71
   520
 72
  -583
 73
   521
  0
VERTEX
  8
04ZCOL05-MAIN
  5
52E
 10
0.0
 20
0.0
 30
0.0
 70
   128
 71
   517
 72
  -519
 73
   518
  0
VERTEX
  8
04ZCOL05-MAIN
  5
52F
 10
0.0
 20
0.0
 30
0.0
 70
   128
 71
   583
 72
  -518
 73
   519
  0
VERTEX
  8
04ZCOL05-MAIN
  5
530
 10
0.0
 20
0.0
 30
0.0
 70
   128
 71
   516
 72
  -517
 73
   582
  0
VERTEX
  8
04ZCOL05-MAIN
  5
531
 10
0.0
 20
0.0
 30
0.0
 70
   128
 71
   518
 72
  -582
 73
   517
  0
VERTEX
  8
04ZCOL05-MAIN
  5
532
 10
0.0
 20
0.0
 30
0.0
 70
   128
 71
   461
 72
  -516
 73
   581
  0
VERTEX
  8
04ZCOL05-MAIN
  5
533
 10
0.0
 20
0.0
 30
0.0
 70
   128
 71
   582
 72
  -581
 73
   516
  0
VERTEX
  8
04ZCOL05-MAIN
  5
534
 10
0.0
 20
0.0
 30
0.0
 70
   128
 71
   449
 72
  -461
 73
   515
  0
VERTEX
  8
04ZCOL05-MAIN
  5
535
 10
0.0
 20
0.0
 30
0.0
 70
   128
 71
   581
 72
  -515
 73
   461
  0
VERTEX
  8
04ZCOL05-MAIN
  5
536
 10
0.0
 20
0.0
 30
0.0
 70
   128
 71
   459
 72
  -460
 73
   577
  0
VERTEX
  8
04ZCOL05-MAIN
  5
537
 10
0.0
 20
0.0
 30
0.0
 70
   128
 71
   580
 72
  -577
 73
   460
  0
VERTEX
  8
04ZCOL05-MAIN
  5
538
 10
0.0
 20
0.0
 30
0.0
 70
   128
 71
   514
 72
  -459
 73
   512
  0
VERTEX
  8
04ZCOL05-MAIN
  5
539
 10
0.0
 20
0.0
 30
0.0
 70
   128
 71
   577
 72
  -512
 73
   459
  0
VERTEX
  8
04ZCOL05-MAIN
  5
53A
 10
0.0
 20
0.0
 30
0.0
 70
   128
 71
   513
 72
  -458
 73
   576
  0
VERTEX
  8
04ZCOL05-MAIN
  5
53B
 10
0.0
 20
0.0
 30
0.0
 70
   128
 71
   511
 72
  -576
 73
   458
  0
VERTEX
  8
04ZCOL05-MAIN
  5
53C
 10
0.0
 20
0.0
 30
0.0
 70
   128
 71
   456
 72
  -513
 73
   575
  0
VERTEX
  8
04ZCOL05-MAIN
  5
53D
 10
0.0
 20
0.0
 30
0.0
 70
   128
 71
   576
 72
  -575
 73
   513
  0
VERTEX
  8
04ZCOL05-MAIN
  5
53E
 10
0.0
 20
0.0
 30
0.0
 70
   128
 71
   455
 72
  -456
 73
   572
  0
VERTEX
  8
04ZCOL05-MAIN
  5
53F
 10
0.0
 20
0.0
 30
0.0
 70
   128
 71
   575
 72
  -572
 73
   456
  0
VERTEX
  8
04ZCOL05-MAIN
  5
540
 10
0.0
 20
0.0
 30
0.0
 70
   128
 71
   460
 72
  -455
 73
   580
  0
VERTEX
  8
04ZCOL05-MAIN
  5
541
 10
0.0
 20
0.0
 30
0.0
 70
   128
 71
   572
 72
  -580
 73
   455
  0
VERTEX
  8
04ZCOL05-MAIN
  5
542
 10
0.0
 20
0.0
 30
0.0
 70
   128
 71
   522
 72
  -514
 73
   588
  0
VERTEX
  8
04ZCOL05-MAIN
  5
543
 10
0.0
 20
0.0
 30
0.0
 70
   128
 71
   512
 72
  -588
 73
   514
  0
VERTEX
  8
04ZCOL05-MAIN
  5
544
 10
0.0
 20
0.0
 30
0.0
 70
   128
 71
   458
 72
  -451
 73
   511
  0
VERTEX
  8
04ZCOL05-MAIN
  5
545
 10
0.0
 20
0.0
 30
0.0
 70
   128
 71
   510
 72
  -511
 73
   451
  0
VERTEX
  8
04ZCOL05-MAIN
  5
546
 10
0.0
 20
0.0
 30
0.0
 70
   128
 71
   523
 72
  -449
 73
   509
  0
VERTEX
  8
04ZCOL05-MAIN
  5
547
 10
0.0
 20
0.0
 30
0.0
 70
   128
 71
   515
 72
  -509
 73
   449
  0
VERTEX
  8
04ZCOL05-MAIN
  5
548
 10
0.0
 20
0.0
 30
0.0
 70
   128
 71
   473
 72
  -447
 73
   592
  0
VERTEX
  8
04ZCOL05-MAIN
  5
549
 10
0.0
 20
0.0
 30
0.0
 70
   128
 71
   569
 72
  -592
 73
   447
  0
VERTEX
  8
04ZCOL05-MAIN
  5
54A
 10
0.0
 20
0.0
 30
0.0
 70
   128
 71
   508
 72
  -478
 73
   507
  0
VERTEX
  8
04ZCOL05-MAIN
  5
54B
 10
0.0
 20
0.0
 30
0.0
 70
   128
 71
   475
 72
  -507
 73
   478
  0
VERTEX
  8
04ZCOL05-MAIN
  5
54C
 10
0.0
 20
0.0
 30
0.0
 70
   128
 71
   444
 72
  -506
 73
   564
  0
VERTEX
  8
04ZCOL05-MAIN
  5
54D
 10
0.0
 20
0.0
 30
0.0
 70
   128
 71
   530
 72
  -564
 73
   506
  0
VERTEX
  8
04ZCOL05-MAIN
  5
54E
 10
0.0
 20
0.0
 30
0.0
 70
   128
 71
   441
 72
  -444
 73
   566
  0
VERTEX
  8
04ZCOL05-MAIN
  5
54F
 10
0.0
 20
0.0
 30
0.0
 70
   128
 71
   564
 72
  -566
 73
   444
  0
VERTEX
  8
04ZCOL05-MAIN
  5
550
 10
0.0
 20
0.0
 30
0.0
 70
   128
 71
   440
 72
  -441
 73
   563
  0
VERTEX
  8
04ZCOL05-MAIN
  5
551
 10
0.0
 20
0.0
 30
0.0
 70
   128
 71
   566
 72
  -563
 73
   441
  0
VERTEX
  8
04ZCOL05-MAIN
  5
552
 10
0.0
 20
0.0
 30
0.0
 70
   128
 71
   437
 72
  -440
 73
   560
  0
VERTEX
  8
04ZCOL05-MAIN
  5
553
 10
0.0
 20
0.0
 30
0.0
 70
   128
 71
   563
 72
  -560
 73
   440
  0
VERTEX
  8
04ZCOL05-MAIN
  5
554
 10
0.0
 20
0.0
 30
0.0
 70
   128
 71
   434
 72
  -437
 73
   561
  0
VERTEX
  8
04ZCOL05-MAIN
  5
555
 10
0.0
 20
0.0
 30
0.0
 70
   128
 71
   560
 72
  -561
 73
   437
  0
VERTEX
  8
04ZCOL05-MAIN
  5
556
 10
0.0
 20
0.0
 30
0.0
 70
   128
 71
   435
 72
  -434
 73
   558
  0
VERTEX
  8
04ZCOL05-MAIN
  5
557
 10
0.0
 20
0.0
 30
0.0
 70
   128
 71
   561
 72
  -558
 73
   434
  0
VERTEX
  8
04ZCOL05-MAIN
  5
558
 10
0.0
 20
0.0
 30
0.0
 70
   128
 71
   432
 72
  -435
 73
   555
  0
VERTEX
  8
04ZCOL05-MAIN
  5
559
 10
0.0
 20
0.0
 30
0.0
 70
   128
 71
   558
 72
  -555
 73
   435
  0
VERTEX
  8
04ZCOL05-MAIN
  5
55A
 10
0.0
 20
0.0
 30
0.0
 70
   128
 71
   431
 72
  -432
 73
   553
  0
VERTEX
  8
04ZCOL05-MAIN
  5
55B
 10
0.0
 20
0.0
 30
0.0
 70
   128
 71
   555
 72
  -553
 73
   432
  0
VERTEX
  8
04ZCOL05-MAIN
  5
55C
 10
0.0
 20
0.0
 30
0.0
 70
   128
 71
   429
 72
  -431
 73
   554
  0
VERTEX
  8
04ZCOL05-MAIN
  5
55D
 10
0.0
 20
0.0
 30
0.0
 70
   128
 71
   553
 72
  -554
 73
   431
  0
VERTEX
  8
04ZCOL05-MAIN
  5
55E
 10
0.0
 20
0.0
 30
0.0
 70
   128
 71
   505
 72
  -429
 73
   504
  0
VERTEX
  8
04ZCOL05-MAIN
  5
55F
 10
0.0
 20
0.0
 30
0.0
 70
   128
 71
   554
 72
  -504
 73
   429
  0
VERTEX
  8
04ZCOL05-MAIN
  5
560
 10
0.0
 20
0.0
 30
0.0
 70
   128
 71
   428
 72
  -505
 73
   503
  0
VERTEX
  8
04ZCOL05-MAIN
  5
561
 10
0.0
 20
0.0
 30
0.0
 70
   128
 71
   504
 72
  -503
 73
   505
  0
VERTEX
  8
04ZCOL05-MAIN
  5
562
 10
0.0
 20
0.0
 30
0.0
 70
   128
 71
   502
 72
  -428
 73
   550
  0
VERTEX
  8
04ZCOL05-MAIN
  5
563
 10
0.0
 20
0.0
 30
0.0
 70
   128
 71
   503
 72
  -550
 73
   428
  0
VERTEX
  8
04ZCOL05-MAIN
  5
564
 10
0.0
 20
0.0
 30
0.0
 70
   128
 71
   477
 72
  -502
 73
   476
  0
VERTEX
  8
04ZCOL05-MAIN
  5
565
 10
0.0
 20
0.0
 30
0.0
 70
   128
 71
   550
 72
  -476
 73
   502
  0
VERTEX
  8
04ZCOL05-MAIN
  5
566
 10
0.0
 20
0.0
 30
0.0
 70
   128
 71
   426
 72
  -501
 73
   500
  0
VERTEX
  8
04ZCOL05-MAIN
  5
567
 10
0.0
 20
0.0
 30
0.0
 70
   128
 71
   532
 72
  -500
 73
   501
  0
VERTEX
  8
04ZCOL05-MAIN
  5
568
 10
0.0
 20
0.0
 30
0.0
 70
   128
 71
   423
 72
  -426
 73
   548
  0
VERTEX
  8
04ZCOL05-MAIN
  5
569
 10
0.0
 20
0.0
 30
0.0
 70
   128
 71
   500
 72
  -548
 73
   426
  0
VERTEX
  8
04ZCOL05-MAIN
  5
56A
 10
0.0
 20
0.0
 30
0.0
 70
   128
 71
   498
 72
  -423
 73
   546
  0
VERTEX
  8
04ZCOL05-MAIN
  5
56B
 10
0.0
 20
0.0
 30
0.0
 70
   128
 71
   548
 72
  -546
 73
   423
  0
VERTEX
  8
04ZCOL05-MAIN
  5
56C
 10
0.0
 20
0.0
 30
0.0
 70
   128
 71
   422
 72
  -498
 73
   499
  0
VERTEX
  8
04ZCOL05-MAIN
  5
56D
 10
0.0
 20
0.0
 30
0.0
 70
   128
 71
   546
 72
  -499
 73
   498
  0
VERTEX
  8
04ZCOL05-MAIN
  5
56E
 10
0.0
 20
0.0
 30
0.0
 70
   128
 71
   420
 72
  -422
 73
   497
  0
VERTEX
  8
04ZCOL05-MAIN
  5
56F
 10
0.0
 20
0.0
 30
0.0
 70
   128
 71
   499
 72
  -497
 73
   422
  0
VERTEX
  8
04ZCOL05-MAIN
  5
570
 10
0.0
 20
0.0
 30
0.0
 70
   128
 71
   494
 72
  -420
 73
   496
  0
VERTEX
  8
04ZCOL05-MAIN
  5
571
 10
0.0
 20
0.0
 30
0.0
 70
   128
 71
   497
 72
  -496
 73
   420
  0
VERTEX
  8
04ZCOL05-MAIN
  5
572
 10
0.0
 20
0.0
 30
0.0
 70
   128
 71
   495
 72
  -494
 73
   492
  0
VERTEX
  8
04ZCOL05-MAIN
  5
573
 10
0.0
 20
0.0
 30
0.0
 70
   128
 71
   496
 72
  -492
 73
   494
  0
VERTEX
  8
04ZCOL05-MAIN
  5
574
 10
0.0
 20
0.0
 30
0.0
 70
   128
 71
   493
 72
  -495
 73
   544
  0
VERTEX
  8
04ZCOL05-MAIN
  5
575
 10
0.0
 20
0.0
 30
0.0
 70
   128
 71
   492
 72
  -544
 73
   495
  0
VERTEX
  8
04ZCOL05-MAIN
  5
576
 10
0.0
 20
0.0
 30
0.0
 70
   128
 71
   490
 72
  -493
 73
   543
  0
VERTEX
  8
04ZCOL05-MAIN
  5
577
 10
0.0
 20
0.0
 30
0.0
 70
   128
 71
   544
 72
  -543
 73
   493
  0
VERTEX
  8
04ZCOL05-MAIN
  5
578
 10
0.0
 20
0.0
 30
0.0
 70
   128
 71
   491
 72
  -490
 73
   542
  0
VERTEX
  8
04ZCOL05-MAIN
  5
579
 10
0.0
 20
0.0
 30
0.0
 70
   128
 71
   543
 72
  -542
 73
   490
  0
VERTEX
  8
04ZCOL05-MAIN
  5
57A
 10
0.0
 20
0.0
 30
0.0
 70
   128
 71
   414
 72
  -491
 73
   489
  0
VERTEX
  8
04ZCOL05-MAIN
  5
57B
 10
0.0
 20
0.0
 30
0.0
 70
   128
 71
   542
 72
  -489
 73
   491
  0
VERTEX
  8
04ZCOL05-MAIN
  5
57C
 10
0.0
 20
0.0
 30
0.0
 70
   128
 71
   415
 72
  -414
 73
   540
  0
VERTEX
  8
04ZCOL05-MAIN
  5
57D
 10
0.0
 20
0.0
 30
0.0
 70
   128
 71
   489
 72
  -540
 73
   414
  0
VERTEX
  8
04ZCOL05-MAIN
  5
57E
 10
0.0
 20
0.0
 30
0.0
 70
   128
 71
   413
 72
  -415
 73
   488
  0
VERTEX
  8
04ZCOL05-MAIN
  5
57F
 10
0.0
 20
0.0
 30
0.0
 70
   128
 71
   540
 72
  -488
 73
   415
  0
VERTEX
  8
04ZCOL05-MAIN
  5
580
 10
0.0
 20
0.0
 30
0.0
 70
   128
 71
   487
 72
  -413
 73
   486
  0
VERTEX
  8
04ZCOL05-MAIN
  5
581
 10
0.0
 20
0.0
 30
0.0
 70
   128
 71
   488
 72
  -486
 73
   413
  0
VERTEX
  8
04ZCOL05-MAIN
  5
582
 10
0.0
 20
0.0
 30
0.0
 70
   128
 71
   412
 72
  -487
 73
   538
  0
VERTEX
  8
04ZCOL05-MAIN
  5
583
 10
0.0
 20
0.0
 30
0.0
 70
   128
 71
   486
 72
  -538
 73
   487
  0
VERTEX
  8
04ZCOL05-MAIN
  5
584
 10
0.0
 20
0.0
 30
0.0
 70
   128
 71
   484
 72
  -412
 73
   485
  0
VERTEX
  8
04ZCOL05-MAIN
  5
585
 10
0.0
 20
0.0
 30
0.0
 70
   128
 71
   538
 72
  -485
 73
   412
  0
VERTEX
  8
04ZCOL05-MAIN
  5
586
 10
0.0
 20
0.0
 30
0.0
 70
   128
 71
   410
 72
  -484
 73
   483
  0
VERTEX
  8
04ZCOL05-MAIN
  5
587
 10
0.0
 20
0.0
 30
0.0
 70
   128
 71
   485
 72
  -483
 73
   484
  0
VERTEX
  8
04ZCOL05-MAIN
  5
588
 10
0.0
 20
0.0
 30
0.0
 70
   128
 71
   482
 72
  -410
 73
   534
  0
VERTEX
  8
04ZCOL05-MAIN
  5
589
 10
0.0
 20
0.0
 30
0.0
 70
   128
 71
   483
 72
  -534
 73
   410
  0
VERTEX
  8
04ZCOL05-MAIN
  5
58A
 10
0.0
 20
0.0
 30
0.0
 70
   128
 71
   408
 72
  -482
 73
   533
  0
VERTEX
  8
04ZCOL05-MAIN
  5
58B
 10
0.0
 20
0.0
 30
0.0
 70
   128
 71
   534
 72
  -533
 73
   482
  0
VERTEX
  8
04ZCOL05-MAIN
  5
58C
 10
0.0
 20
0.0
 30
0.0
 70
   128
 71
   407
 72
  -408
 73
   481
  0
VERTEX
  8
04ZCOL05-MAIN
  5
58D
 10
0.0
 20
0.0
 30
0.0
 70
   128
 71
   533
 72
  -481
 73
   408
  0
VERTEX
  8
04ZCOL05-MAIN
  5
58E
 10
0.0
 20
0.0
 30
0.0
 70
   128
 71
   501
 72
  -480
 73
   532
  0
VERTEX
  8
04ZCOL05-MAIN
  5
58F
 10
0.0
 20
0.0
 30
0.0
 70
   128
 71
   531
 72
  -532
 73
   480
  0
VERTEX
  8
04ZCOL05-MAIN
  5
590
 10
0.0
 20
0.0
 30
0.0
 70
   128
 71
   506
 72
  -407
 73
   530
  0
VERTEX
  8
04ZCOL05-MAIN
  5
591
 10
0.0
 20
0.0
 30
0.0
 70
   128
 71
   481
 72
  -530
 73
   407
  0
VERTEX
  8
04ZCOL05-MAIN
  5
592
 10
0.0
 20
0.0
 30
0.0
 70
   128
 71
   480
 72
  -479
 73
   531
  0
VERTEX
  8
04ZCOL05-MAIN
  5
593
 10
0.0
 20
0.0
 30
0.0
 70
   128
 71
   528
 72
  -531
 73
   479
  0
VERTEX
  8
04ZCOL05-MAIN
  5
594
 10
0.0
 20
0.0
 30
0.0
 70
   128
 71
   478
 72
  -477
 73
   475
  0
VERTEX
  8
04ZCOL05-MAIN
  5
595
 10
0.0
 20
0.0
 30
0.0
 70
   128
 71
   476
 72
  -475
 73
   477
  0
VERTEX
  8
04ZCOL05-MAIN
  5
596
 10
0.0
 20
0.0
 30
0.0
 70
   128
 71
   470
 72
  -474
 73
   472
  0
VERTEX
  8
04ZCOL05-MAIN
  5
597
 10
0.0
 20
0.0
 30
0.0
 70
   128
 71
   473
 72
  -472
 73
   474
  0
VERTEX
  8
04ZCOL05-MAIN
  5
598
 10
0.0
 20
0.0
 30
0.0
 70
   128
 71
   471
 72
  -470
 73
   469
  0
VERTEX
  8
04ZCOL05-MAIN
  5
599
 10
0.0
 20
0.0
 30
0.0
 70
   128
 71
   472
 72
  -469
 73
   470
  0
VERTEX
  8
04ZCOL05-MAIN
  5
59A
 10
0.0
 20
0.0
 30
0.0
 70
   128
 71
   479
 72
  -471
 73
   528
  0
VERTEX
  8
04ZCOL05-MAIN
  5
59B
 10
0.0
 20
0.0
 30
0.0
 70
   128
 71
   469
 72
  -528
 73
   471
  0
VERTEX
  8
04ZCOL05-MAIN
  5
59C
 10
0.0
 20
0.0
 30
0.0
 70
   128
 71
   448
 72
  -468
 73
   447
  0
VERTEX
  8
04ZCOL05-MAIN
  5
59D
 10
0.0
 20
0.0
 30
0.0
 70
   128
 71
   523
 72
  -447
 73
   468
  0
VERTEX
  8
04ZCOL05-MAIN
  5
59E
 10
0.0
 20
0.0
 30
0.0
 70
   128
 71
   406
 72
  -454
 73
   465
  0
VERTEX
  8
04ZCOL05-MAIN
  5
59F
 10
0.0
 20
0.0
 30
0.0
 70
   128
 71
   522
 72
  -465
 73
   454
  0
VERTEX
  8
04ZCOL05-MAIN
  5
5A0
 10
0.0
 20
0.0
 30
0.0
 70
   128
 71
   467
 72
  -406
 73
   466
  0
VERTEX
  8
04ZCOL05-MAIN
  5
5A1
 10
0.0
 20
0.0
 30
0.0
 70
   128
 71
   465
 72
  -466
 73
   406
  0
VERTEX
  8
04ZCOL05-MAIN
  5
5A2
 10
0.0
 20
0.0
 30
0.0
 70
   128
 71
   464
 72
  -467
 73
   521
  0
VERTEX
  8
04ZCOL05-MAIN
  5
5A3
 10
0.0
 20
0.0
 30
0.0
 70
   128
 71
   466
 72
  -521
 73
   467
  0
VERTEX
  8
04ZCOL05-MAIN
  5
5A4
 10
0.0
 20
0.0
 30
0.0
 70
   128
 71
   462
 72
  -464
 73
   519
  0
VERTEX
  8
04ZCOL05-MAIN
  5
5A5
 10
0.0
 20
0.0
 30
0.0
 70
   128
 71
   521
 72
  -519
 73
   464
  0
VERTEX
  8
04ZCOL05-MAIN
  5
5A6
 10
0.0
 20
0.0
 30
0.0
 70
   128
 71
   463
 72
  -462
 73
   517
  0
VERTEX
  8
04ZCOL05-MAIN
  5
5A7
 10
0.0
 20
0.0
 30
0.0
 70
   128
 71
   519
 72
  -517
 73
   462
  0
VERTEX
  8
04ZCOL05-MAIN
  5
5A8
 10
0.0
 20
0.0
 30
0.0
 70
   128
 71
   403
 72
  -463
 73
   516
  0
VERTEX
  8
04ZCOL05-MAIN
  5
5A9
 10
0.0
 20
0.0
 30
0.0
 70
   128
 71
   517
 72
  -516
 73
   463
  0
VERTEX
  8
04ZCOL05-MAIN
  5
5AA
 10
0.0
 20
0.0
 30
0.0
 70
   128
 71
   402
 72
  -403
 73
   461
  0
VERTEX
  8
04ZCOL05-MAIN
  5
5AB
 10
0.0
 20
0.0
 30
0.0
 70
   128
 71
   516
 72
  -461
 73
   403
  0
VERTEX
  8
04ZCOL05-MAIN
  5
5AC
 10
0.0
 20
0.0
 30
0.0
 70
   128
 71
   450
 72
  -402
 73
   449
  0
VERTEX
  8
04ZCOL05-MAIN
  5
5AD
 10
0.0
 20
0.0
 30
0.0
 70
   128
 71
   461
 72
  -449
 73
   402
  0
VERTEX
  8
04ZCOL05-MAIN
  5
5AE
 10
0.0
 20
0.0
 30
0.0
 70
   128
 71
   400
 72
  -395
 73
   459
  0
VERTEX
  8
04ZCOL05-MAIN
  5
5AF
 10
0.0
 20
0.0
 30
0.0
 70
   128
 71
   460
 72
  -459
 73
   395
  0
VERTEX
  8
04ZCOL05-MAIN
  5
5B0
 10
0.0
 20
0.0
 30
0.0
 70
   128
 71
   453
 72
  -400
 73
   514
  0
VERTEX
  8
04ZCOL05-MAIN
  5
5B1
 10
0.0
 20
0.0
 30
0.0
 70
   128
 71
   459
 72
  -514
 73
   400
  0
VERTEX
  8
04ZCOL05-MAIN
  5
5B2
 10
0.0
 20
0.0
 30
0.0
 70
   128
 71
   399
 72
  -457
 73
   513
  0
VERTEX
  8
04ZCOL05-MAIN
  5
5B3
 10
0.0
 20
0.0
 30
0.0
 70
   128
 71
   458
 72
  -513
 73
   457
  0
VERTEX
  8
04ZCOL05-MAIN
  5
5B4
 10
0.0
 20
0.0
 30
0.0
 70
   128
 71
   398
 72
  -399
 73
   456
  0
VERTEX
  8
04ZCOL05-MAIN
  5
5B5
 10
0.0
 20
0.0
 30
0.0
 70
   128
 71
   513
 72
  -456
 73
   399
  0
VERTEX
  8
04ZCOL05-MAIN
  5
5B6
 10
0.0
 20
0.0
 30
0.0
 70
   128
 71
   396
 72
  -398
 73
   455
  0
VERTEX
  8
04ZCOL05-MAIN
  5
5B7
 10
0.0
 20
0.0
 30
0.0
 70
   128
 71
   456
 72
  -455
 73
   398
  0
VERTEX
  8
04ZCOL05-MAIN
  5
5B8
 10
0.0
 20
0.0
 30
0.0
 70
   128
 71
   395
 72
  -396
 73
   460
  0
VERTEX
  8
04ZCOL05-MAIN
  5
5B9
 10
0.0
 20
0.0
 30
0.0
 70
   128
 71
   455
 72
  -460
 73
   396
  0
VERTEX
  8
04ZCOL05-MAIN
  5
5BA
 10
0.0
 20
0.0
 30
0.0
 70
   128
 71
   454
 72
  -453
 73
   522
  0
VERTEX
  8
04ZCOL05-MAIN
  5
5BB
 10
0.0
 20
0.0
 30
0.0
 70
   128
 71
   514
 72
  -522
 73
   453
  0
VERTEX
  8
04ZCOL05-MAIN
  5
5BC
 10
0.0
 20
0.0
 30
0.0
 70
   128
 71
   457
 72
  -452
 73
   458
  0
VERTEX
  8
04ZCOL05-MAIN
  5
5BD
 10
0.0
 20
0.0
 30
0.0
 70
   128
 71
   451
 72
  -458
 73
   452
  0
VERTEX
  8
04ZCOL05-MAIN
  5
5BE
 10
0.0
 20
0.0
 30
0.0
 70
   128
 71
   468
 72
  -450
 73
   523
  0
VERTEX
  8
04ZCOL05-MAIN
  5
5BF
 10
0.0
 20
0.0
 30
0.0
 70
   128
 71
   449
 72
  -523
 73
   450
  0
VERTEX
  8
04ZCOL05-MAIN
  5
5C0
 10
0.0
 20
0.0
 30
0.0
 70
   128
 71
   474
 72
  -448
 73
   473
  0
VERTEX
  8
04ZCOL05-MAIN
  5
5C1
 10
0.0
 20
0.0
 30
0.0
 70
   128
 71
   447
 72
  -473
 73
   448
  0
VERTEX
  8
04ZCOL05-MAIN
  5
5C2
 10
0.0
 20
0.0
 30
0.0
 70
   128
 71
   446
 72
  -445
 73
   508
  0
VERTEX
  8
04ZCOL05-MAIN
  5
5C3
 10
0.0
 20
0.0
 30
0.0
 70
   128
 71
   478
 72
  -508
 73
   445
  0
VERTEX
  8
04ZCOL05-MAIN
  5
5C4
 10
0.0
 20
0.0
 30
0.0
 70
   128
 71
   443
 72
  -357
 73
   444
  0
VERTEX
  8
04ZCOL05-MAIN
  5
5C5
 10
0.0
 20
0.0
 30
0.0
 70
   128
 71
   506
 72
  -444
 73
   357
  0
VERTEX
  8
04ZCOL05-MAIN
  5
5C6
 10
0.0
 20
0.0
 30
0.0
 70
   128
 71
   442
 72
  -443
 73
   441
  0
VERTEX
  8
04ZCOL05-MAIN
  5
5C7
 10
0.0
 20
0.0
 30
0.0
 70
   128
 71
   444
 72
  -441
 73
   443
  0
VERTEX
  8
04ZCOL05-MAIN
  5
5C8
 10
0.0
 20
0.0
 30
0.0
 70
   128
 71
   438
 72
  -442
 73
   440
  0
VERTEX
  8
04ZCOL05-MAIN
  5
5C9
 10
0.0
 20
0.0
 30
0.0
 70
   128
 71
   441
 72
  -440
 73
   442
  0
VERTEX
  8
04ZCOL05-MAIN
  5
5CA
 10
0.0
 20
0.0
 30
0.0
 70
   128
 71
   439
 72
  -438
 73
   437
  0
VERTEX
  8
04ZCOL05-MAIN
  5
5CB
 10
0.0
 20
0.0
 30
0.0
 70
   128
 71
   440
 72
  -437
 73
   438
  0
VERTEX
  8
04ZCOL05-MAIN
  5
5CC
 10
0.0
 20
0.0
 30
0.0
 70
   128
 71
   436
 72
  -439
 73
   434
  0
VERTEX
  8
04ZCOL05-MAIN
  5
5CD
 10
0.0
 20
0.0
 30
0.0
 70
   128
 71
   437
 72
  -434
 73
   439
  0
VERTEX
  8
04ZCOL05-MAIN
  5
5CE
 10
0.0
 20
0.0
 30
0.0
 70
   128
 71
   433
 72
  -436
 73
   435
  0
VERTEX
  8
04ZCOL05-MAIN
  5
5CF
 10
0.0
 20
0.0
 30
0.0
 70
   128
 71
   434
 72
  -435
 73
   436
  0
VERTEX
  8
04ZCOL05-MAIN
  5
5D0
 10
0.0
 20
0.0
 30
0.0
 70
   128
 71
   430
 72
  -433
 73
   432
  0
VERTEX
  8
04ZCOL05-MAIN
  5
5D1
 10
0.0
 20
0.0
 30
0.0
 70
   128
 71
   435
 72
  -432
 73
   433
  0
VERTEX
  8
04ZCOL05-MAIN
  5
5D2
 10
0.0
 20
0.0
 30
0.0
 70
   128
 71
   388
 72
  -430
 73
   431
  0
VERTEX
  8
04ZCOL05-MAIN
  5
5D3
 10
0.0
 20
0.0
 30
0.0
 70
   128
 71
   432
 72
  -431
 73
   430
  0
VERTEX
  8
04ZCOL05-MAIN
  5
5D4
 10
0.0
 20
0.0
 30
0.0
 70
   128
 71
   386
 72
  -388
 73
   429
  0
VERTEX
  8
04ZCOL05-MAIN
  5
5D5
 10
0.0
 20
0.0
 30
0.0
 70
   128
 71
   431
 72
  -429
 73
   388
  0
VERTEX
  8
04ZCOL05-MAIN
  5
5D6
 10
0.0
 20
0.0
 30
0.0
 70
   128
 71
   385
 72
  -386
 73
   505
  0
VERTEX
  8
04ZCOL05-MAIN
  5
5D7
 10
0.0
 20
0.0
 30
0.0
 70
   128
 71
   429
 72
  -505
 73
   386
  0
VERTEX
  8
04ZCOL05-MAIN
  5
5D8
 10
0.0
 20
0.0
 30
0.0
 70
   128
 71
   427
 72
  -385
 73
   428
  0
VERTEX
  8
04ZCOL05-MAIN
  5
5D9
 10
0.0
 20
0.0
 30
0.0
 70
   128
 71
   505
 72
  -428
 73
   385
  0
VERTEX
  8
04ZCOL05-MAIN
  5
5DA
 10
0.0
 20
0.0
 30
0.0
 70
   128
 71
   384
 72
  -427
 73
   502
  0
VERTEX
  8
04ZCOL05-MAIN
  5
5DB
 10
0.0
 20
0.0
 30
0.0
 70
   128
 71
   428
 72
  -502
 73
   427
  0
VERTEX
  8
04ZCOL05-MAIN
  5
5DC
 10
0.0
 20
0.0
 30
0.0
 70
   128
 71
   382
 72
  -384
 73
   477
  0
VERTEX
  8
04ZCOL05-MAIN
  5
5DD
 10
0.0
 20
0.0
 30
0.0
 70
   128
 71
   502
 72
  -477
 73
   384
  0
VERTEX
  8
04ZCOL05-MAIN
  5
5DE
 10
0.0
 20
0.0
 30
0.0
 70
   128
 71
   425
 72
  -381
 73
   426
  0
VERTEX
  8
04ZCOL05-MAIN
  5
5DF
 10
0.0
 20
0.0
 30
0.0
 70
   128
 71
   501
 72
  -426
 73
   381
  0
VERTEX
  8
04ZCOL05-MAIN
  5
5E0
 10
0.0
 20
0.0
 30
0.0
 70
   128
 71
   378
 72
  -425
 73
   423
  0
VERTEX
  8
04ZCOL05-MAIN
  5
5E1
 10
0.0
 20
0.0
 30
0.0
 70
   128
 71
   426
 72
  -423
 73
   425
  0
VERTEX
  8
04ZCOL05-MAIN
  5
5E2
 10
0.0
 20
0.0
 30
0.0
 70
   128
 71
   424
 72
  -378
 73
   498
  0
VERTEX
  8
04ZCOL05-MAIN
  5
5E3
 10
0.0
 20
0.0
 30
0.0
 70
   128
 71
   423
 72
  -498
 73
   378
  0
VERTEX
  8
04ZCOL05-MAIN
  5
5E4
 10
0.0
 20
0.0
 30
0.0
 70
   128
 71
   376
 72
  -424
 73
   422
  0
VERTEX
  8
04ZCOL05-MAIN
  5
5E5
 10
0.0
 20
0.0
 30
0.0
 70
   128
 71
   498
 72
  -422
 73
   424
  0
VERTEX
  8
04ZCOL05-MAIN
  5
5E6
 10
0.0
 20
0.0
 30
0.0
 70
   128
 71
   421
 72
  -376
 73
   420
  0
VERTEX
  8
04ZCOL05-MAIN
  5
5E7
 10
0.0
 20
0.0
 30
0.0
 70
   128
 71
   422
 72
  -420
 73
   376
  0
VERTEX
  8
04ZCOL05-MAIN
  5
5E8
 10
0.0
 20
0.0
 30
0.0
 70
   128
 71
   375
 72
  -421
 73
   494
  0
VERTEX
  8
04ZCOL05-MAIN
  5
5E9
 10
0.0
 20
0.0
 30
0.0
 70
   128
 71
   420
 72
  -494
 73
   421
  0
VERTEX
  8
04ZCOL05-MAIN
  5
5EA
 10
0.0
 20
0.0
 30
0.0
 70
   128
 71
   419
 72
  -375
 73
   495
  0
VERTEX
  8
04ZCOL05-MAIN
  5
5EB
 10
0.0
 20
0.0
 30
0.0
 70
   128
 71
   494
 72
  -495
 73
   375
  0
VERTEX
  8
04ZCOL05-MAIN
  5
5EC
 10
0.0
 20
0.0
 30
0.0
 70
   128
 71
   418
 72
  -419
 73
   493
  0
VERTEX
  8
04ZCOL05-MAIN
  5
5ED
 10
0.0
 20
0.0
 30
0.0
 70
   128
 71
   495
 72
  -493
 73
   419
  0
VERTEX
  8
04ZCOL05-MAIN
  5
5EE
 10
0.0
 20
0.0
 30
0.0
 70
   128
 71
   417
 72
  -418
 73
   490
  0
VERTEX
  8
04ZCOL05-MAIN
  5
5EF
 10
0.0
 20
0.0
 30
0.0
 70
   128
 71
   493
 72
  -490
 73
   418
  0
VERTEX
  8
04ZCOL05-MAIN
  5
5F0
 10
0.0
 20
0.0
 30
0.0
 70
   128
 71
   416
 72
  -417
 73
   491
  0
VERTEX
  8
04ZCOL05-MAIN
  5
5F1
 10
0.0
 20
0.0
 30
0.0
 70
   128
 71
   490
 72
  -491
 73
   417
  0
VERTEX
  8
04ZCOL05-MAIN
  5
5F2
 10
0.0
 20
0.0
 30
0.0
 70
   128
 71
   369
 72
  -416
 73
   414
  0
VERTEX
  8
04ZCOL05-MAIN
  5
5F3
 10
0.0
 20
0.0
 30
0.0
 70
   128
 71
   491
 72
  -414
 73
   416
  0
VERTEX
  8
04ZCOL05-MAIN
  5
5F4
 10
0.0
 20
0.0
 30
0.0
 70
   128
 71
   370
 72
  -369
 73
   415
  0
VERTEX
  8
04ZCOL05-MAIN
  5
5F5
 10
0.0
 20
0.0
 30
0.0
 70
   128
 71
   414
 72
  -415
 73
   369
  0
VERTEX
  8
04ZCOL05-MAIN
  5
5F6
 10
0.0
 20
0.0
 30
0.0
 70
   128
 71
   368
 72
  -370
 73
   413
  0
VERTEX
  8
04ZCOL05-MAIN
  5
5F7
 10
0.0
 20
0.0
 30
0.0
 70
   128
 71
   415
 72
  -413
 73
   370
  0
VERTEX
  8
04ZCOL05-MAIN
  5
5F8
 10
0.0
 20
0.0
 30
0.0
 70
   128
 71
   367
 72
  -368
 73
   487
  0
VERTEX
  8
04ZCOL05-MAIN
  5
5F9
 10
0.0
 20
0.0
 30
0.0
 70
   128
 71
   413
 72
  -487
 73
   368
  0
VERTEX
  8
04ZCOL05-MAIN
  5
5FA
 10
0.0
 20
0.0
 30
0.0
 70
   128
 71
   364
 72
  -367
 73
   412
  0
VERTEX
  8
04ZCOL05-MAIN
  5
5FB
 10
0.0
 20
0.0
 30
0.0
 70
   128
 71
   487
 72
  -412
 73
   367
  0
VERTEX
  8
04ZCOL05-MAIN
  5
5FC
 10
0.0
 20
0.0
 30
0.0
 70
   128
 71
   365
 72
  -364
 73
   484
  0
VERTEX
  8
04ZCOL05-MAIN
  5
5FD
 10
0.0
 20
0.0
 30
0.0
 70
   128
 71
   412
 72
  -484
 73
   364
  0
VERTEX
  8
04ZCOL05-MAIN
  5
5FE
 10
0.0
 20
0.0
 30
0.0
 70
   128
 71
   411
 72
  -365
 73
   410
  0
VERTEX
  8
04ZCOL05-MAIN
  5
5FF
 10
0.0
 20
0.0
 30
0.0
 70
   128
 71
   484
 72
  -410
 73
   365
  0
VERTEX
  8
04ZCOL05-MAIN
  5
600
 10
0.0
 20
0.0
 30
0.0
 70
   128
 71
   409
 72
  -411
 73
   482
  0
VERTEX
  8
04ZCOL05-MAIN
  5
601
 10
0.0
 20
0.0
 30
0.0
 70
   128
 71
   410
 72
  -482
 73
   411
  0
VERTEX
  8
04ZCOL05-MAIN
  5
602
 10
0.0
 20
0.0
 30
0.0
 70
   128
 71
   362
 72
  -409
 73
   408
  0
VERTEX
  8
04ZCOL05-MAIN
  5
603
 10
0.0
 20
0.0
 30
0.0
 70
   128
 71
   482
 72
  -408
 73
   409
  0
VERTEX
  8
04ZCOL05-MAIN
  5
604
 10
0.0
 20
0.0
 30
0.0
 70
   128
 71
   358
 72
  -362
 73
   407
  0
VERTEX
  8
04ZCOL05-MAIN
  5
605
 10
0.0
 20
0.0
 30
0.0
 70
   128
 71
   408
 72
  -407
 73
   362
  0
VERTEX
  8
04ZCOL05-MAIN
  5
606
 10
0.0
 20
0.0
 30
0.0
 70
   128
 71
   381
 72
  -356
 73
   501
  0
VERTEX
  8
04ZCOL05-MAIN
  5
607
 10
0.0
 20
0.0
 30
0.0
 70
   128
 71
   480
 72
  -501
 73
   356
  0
VERTEX
  8
04ZCOL05-MAIN
  5
608
 10
0.0
 20
0.0
 30
0.0
 70
   128
 71
   357
 72
  -358
 73
   506
  0
VERTEX
  8
04ZCOL05-MAIN
  5
609
 10
0.0
 20
0.0
 30
0.0
 70
   128
 71
   407
 72
  -506
 73
   358
  0
VERTEX
  8
04ZCOL05-MAIN
  5
60A
 10
0.0
 20
0.0
 30
0.0
 70
   128
 71
   356
 72
  -350
 73
   480
  0
VERTEX
  8
04ZCOL05-MAIN
  5
60B
 10
0.0
 20
0.0
 30
0.0
 70
   128
 71
   479
 72
  -480
 73
   350
  0
VERTEX
  8
04ZCOL05-MAIN
  5
60C
 10
0.0
 20
0.0
 30
0.0
 70
   128
 71
   445
 72
  -382
 73
   478
  0
VERTEX
  8
04ZCOL05-MAIN
  5
60D
 10
0.0
 20
0.0
 30
0.0
 70
   128
 71
   477
 72
  -478
 73
   382
  0
VERTEX
  8
04ZCOL05-MAIN
  5
60E
 10
0.0
 20
0.0
 30
0.0
 70
   128
 71
   355
 72
  -354
 73
   470
  0
VERTEX
  8
04ZCOL05-MAIN
  5
60F
 10
0.0
 20
0.0
 30
0.0
 70
   128
 71
   474
 72
  -470
 73
   354
  0
VERTEX
  8
04ZCOL05-MAIN
  5
610
 10
0.0
 20
0.0
 30
0.0
 70
   128
 71
   349
 72
  -355
 73
   471
  0
VERTEX
  8
04ZCOL05-MAIN
  5
611
 10
0.0
 20
0.0
 30
0.0
 70
   128
 71
   470
 72
  -471
 73
   355
  0
VERTEX
  8
04ZCOL05-MAIN
  5
612
 10
0.0
 20
0.0
 30
0.0
 70
   128
 71
   350
 72
  -349
 73
   479
  0
VERTEX
  8
04ZCOL05-MAIN
  5
613
 10
0.0
 20
0.0
 30
0.0
 70
   128
 71
   471
 72
  -479
 73
   349
  0
VERTEX
  8
04ZCOL05-MAIN
  5
614
 10
0.0
 20
0.0
 30
0.0
 70
   128
 71
   348
 72
  -322
 73
   448
  0
VERTEX
  8
04ZCOL05-MAIN
  5
615
 10
0.0
 20
0.0
 30
0.0
 70
   128
 71
   468
 72
  -448
 73
   322
  0
VERTEX
  8
04ZCOL05-MAIN
  5
616
 10
0.0
 20
0.0
 30
0.0
 70
   128
 71
   345
 72
  -346
 73
   406
  0
VERTEX
  8
04ZCOL05-MAIN
  5
617
 10
0.0
 20
0.0
 30
0.0
 70
   128
 71
   454
 72
  -406
 73
   346
  0
VERTEX
  8
04ZCOL05-MAIN
  5
618
 10
0.0
 20
0.0
 30
0.0
 70
   128
 71
   405
 72
  -345
 73
   467
  0
VERTEX
  8
04ZCOL05-MAIN
  5
619
 10
0.0
 20
0.0
 30
0.0
 70
   128
 71
   406
 72
  -467
 73
   345
  0
VERTEX
  8
04ZCOL05-MAIN
  5
61A
 10
0.0
 20
0.0
 30
0.0
 70
   128
 71
   344
 72
  -405
 73
   464
  0
VERTEX
  8
04ZCOL05-MAIN
  5
61B
 10
0.0
 20
0.0
 30
0.0
 70
   128
 71
   467
 72
  -464
 73
   405
  0
VERTEX
  8
04ZCOL05-MAIN
  5
61C
 10
0.0
 20
0.0
 30
0.0
 70
   128
 71
   342
 72
  -344
 73
   462
  0
VERTEX
  8
04ZCOL05-MAIN
  5
61D
 10
0.0
 20
0.0
 30
0.0
 70
   128
 71
   464
 72
  -462
 73
   344
  0
VERTEX
  8
04ZCOL05-MAIN
  5
61E
 10
0.0
 20
0.0
 30
0.0
 70
   128
 71
   404
 72
  -342
 73
   463
  0
VERTEX
  8
04ZCOL05-MAIN
  5
61F
 10
0.0
 20
0.0
 30
0.0
 70
   128
 71
   462
 72
  -463
 73
   342
  0
VERTEX
  8
04ZCOL05-MAIN
  5
620
 10
0.0
 20
0.0
 30
0.0
 70
   128
 71
   401
 72
  -404
 73
   403
  0
VERTEX
  8
04ZCOL05-MAIN
  5
621
 10
0.0
 20
0.0
 30
0.0
 70
   128
 71
   463
 72
  -403
 73
   404
  0
VERTEX
  8
04ZCOL05-MAIN
  5
622
 10
0.0
 20
0.0
 30
0.0
 70
   128
 71
   338
 72
  -401
 73
   402
  0
VERTEX
  8
04ZCOL05-MAIN
  5
623
 10
0.0
 20
0.0
 30
0.0
 70
   128
 71
   403
 72
  -402
 73
   401
  0
VERTEX
  8
04ZCOL05-MAIN
  5
624
 10
0.0
 20
0.0
 30
0.0
 70
   128
 71
   337
 72
  -338
 73
   450
  0
VERTEX
  8
04ZCOL05-MAIN
  5
625
 10
0.0
 20
0.0
 30
0.0
 70
   128
 71
   402
 72
  -450
 73
   338
  0
VERTEX
  8
04ZCOL05-MAIN
  5
626
 10
0.0
 20
0.0
 30
0.0
 70
   128
 71
   336
 72
  -397
 73
   400
  0
VERTEX
  8
04ZCOL05-MAIN
  5
627
 10
0.0
 20
0.0
 30
0.0
 70
   128
 71
   395
 72
  -400
 73
   397
  0
VERTEX
  8
04ZCOL05-MAIN
  5
628
 10
0.0
 20
0.0
 30
0.0
 70
   128
 71
   326
 72
  -336
 73
   453
  0
VERTEX
  8
04ZCOL05-MAIN
  5
629
 10
0.0
 20
0.0
 30
0.0
 70
   128
 71
   400
 72
  -453
 73
   336
  0
VERTEX
  8
04ZCOL05-MAIN
  5
62A
 10
0.0
 20
0.0
 30
0.0
 70
   128
 71
   330
 72
  -325
 73
   399
  0
VERTEX
  8
04ZCOL05-MAIN
  5
62B
 10
0.0
 20
0.0
 30
0.0
 70
   128
 71
   457
 72
  -399
 73
   325
  0
VERTEX
  8
04ZCOL05-MAIN
  5
62C
 10
0.0
 20
0.0
 30
0.0
 70
   128
 71
   331
 72
  -330
 73
   398
  0
VERTEX
  8
04ZCOL05-MAIN
  5
62D
 10
0.0
 20
0.0
 30
0.0
 70
   128
 71
   399
 72
  -398
 73
   330
  0
VERTEX
  8
04ZCOL05-MAIN
  5
62E
 10
0.0
 20
0.0
 30
0.0
 70
   128
 71
   329
 72
  -331
 73
   396
  0
VERTEX
  8
04ZCOL05-MAIN
  5
62F
 10
0.0
 20
0.0
 30
0.0
 70
   128
 71
   398
 72
  -396
 73
   331
  0
VERTEX
  8
04ZCOL05-MAIN
  5
630
 10
0.0
 20
0.0
 30
0.0
 70
   128
 71
   397
 72
  -329
 73
   395
  0
VERTEX
  8
04ZCOL05-MAIN
  5
631
 10
0.0
 20
0.0
 30
0.0
 70
   128
 71
   396
 72
  -395
 73
   329
  0
VERTEX
  8
04ZCOL05-MAIN
  5
632
 10
0.0
 20
0.0
 30
0.0
 70
   128
 71
   346
 72
  -326
 73
   454
  0
VERTEX
  8
04ZCOL05-MAIN
  5
633
 10
0.0
 20
0.0
 30
0.0
 70
   128
 71
   453
 72
  -454
 73
   326
  0
VERTEX
  8
04ZCOL05-MAIN
  5
634
 10
0.0
 20
0.0
 30
0.0
 70
   128
 71
   325
 72
  -324
 73
   457
  0
VERTEX
  8
04ZCOL05-MAIN
  5
635
 10
0.0
 20
0.0
 30
0.0
 70
   128
 71
   452
 72
  -457
 73
   324
  0
VERTEX
  8
04ZCOL05-MAIN
  5
636
 10
0.0
 20
0.0
 30
0.0
 70
   128
 71
   322
 72
  -337
 73
   468
  0
VERTEX
  8
04ZCOL05-MAIN
  5
637
 10
0.0
 20
0.0
 30
0.0
 70
   128
 71
   450
 72
  -468
 73
   337
  0
VERTEX
  8
04ZCOL05-MAIN
  5
638
 10
0.0
 20
0.0
 30
0.0
 70
   128
 71
   354
 72
  -348
 73
   474
  0
VERTEX
  8
04ZCOL05-MAIN
  5
639
 10
0.0
 20
0.0
 30
0.0
 70
   128
 71
   448
 72
  -474
 73
   348
  0
VERTEX
  8
04ZCOL05-MAIN
  5
63A
 10
0.0
 20
0.0
 30
0.0
 70
   128
 71
   319
 72
  -394
 73
   446
  0
VERTEX
  8
04ZCOL05-MAIN
  5
63B
 10
0.0
 20
0.0
 30
0.0
 70
   128
 71
   445
 72
  -446
 73
   394
  0
VERTEX
  8
04ZCOL05-MAIN
  5
63C
 10
0.0
 20
0.0
 30
0.0
 70
   128
 71
   393
 72
  -318
 73
   443
  0
VERTEX
  8
04ZCOL05-MAIN
  5
63D
 10
0.0
 20
0.0
 30
0.0
 70
   128
 71
   357
 72
  -443
 73
   318
  0
VERTEX
  8
04ZCOL05-MAIN
  5
63E
 10
0.0
 20
0.0
 30
0.0
 70
   128
 71
   392
 72
  -393
 73
   442
  0
VERTEX
  8
04ZCOL05-MAIN
  5
63F
 10
0.0
 20
0.0
 30
0.0
 70
   128
 71
   443
 72
  -442
 73
   393
  0
VERTEX
  8
04ZCOL05-MAIN
  5
640
 10
0.0
 20
0.0
 30
0.0
 70
   128
 71
   315
 72
  -392
 73
   438
  0
VERTEX
  8
04ZCOL05-MAIN
  5
641
 10
0.0
 20
0.0
 30
0.0
 70
   128
 71
   442
 72
  -438
 73
   392
  0
VERTEX
  8
04ZCOL05-MAIN
  5
642
 10
0.0
 20
0.0
 30
0.0
 70
   128
 71
   391
 72
  -315
 73
   439
  0
VERTEX
  8
04ZCOL05-MAIN
  5
643
 10
0.0
 20
0.0
 30
0.0
 70
   128
 71
   438
 72
  -439
 73
   315
  0
VERTEX
  8
04ZCOL05-MAIN
  5
644
 10
0.0
 20
0.0
 30
0.0
 70
   128
 71
   314
 72
  -391
 73
   436
  0
VERTEX
  8
04ZCOL05-MAIN
  5
645
 10
0.0
 20
0.0
 30
0.0
 70
   128
 71
   439
 72
  -436
 73
   391
  0
VERTEX
  8
04ZCOL05-MAIN
  5
646
 10
0.0
 20
0.0
 30
0.0
 70
   128
 71
   313
 72
  -314
 73
   433
  0
VERTEX
  8
04ZCOL05-MAIN
  5
647
 10
0.0
 20
0.0
 30
0.0
 70
   128
 71
   436
 72
  -433
 73
   314
  0
VERTEX
  8
04ZCOL05-MAIN
  5
648
 10
0.0
 20
0.0
 30
0.0
 70
   128
 71
   390
 72
  -313
 73
   430
  0
VERTEX
  8
04ZCOL05-MAIN
  5
649
 10
0.0
 20
0.0
 30
0.0
 70
   128
 71
   433
 72
  -430
 73
   313
  0
VERTEX
  8
04ZCOL05-MAIN
  5
64A
 10
0.0
 20
0.0
 30
0.0
 70
   128
 71
   389
 72
  -390
 73
   388
  0
VERTEX
  8
04ZCOL05-MAIN
  5
64B
 10
0.0
 20
0.0
 30
0.0
 70
   128
 71
   430
 72
  -388
 73
   390
  0
VERTEX
  8
04ZCOL05-MAIN
  5
64C
 10
0.0
 20
0.0
 30
0.0
 70
   128
 71
   387
 72
  -389
 73
   386
  0
VERTEX
  8
04ZCOL05-MAIN
  5
64D
 10
0.0
 20
0.0
 30
0.0
 70
   128
 71
   388
 72
  -386
 73
   389
  0
VERTEX
  8
04ZCOL05-MAIN
  5
64E
 10
0.0
 20
0.0
 30
0.0
 70
   128
 71
   311
 72
  -387
 73
   385
  0
VERTEX
  8
04ZCOL05-MAIN
  5
64F
 10
0.0
 20
0.0
 30
0.0
 70
   128
 71
   386
 72
  -385
 73
   387
  0
VERTEX
  8
04ZCOL05-MAIN
  5
650
 10
0.0
 20
0.0
 30
0.0
 70
   128
 71
   383
 72
  -311
 73
   427
  0
VERTEX
  8
04ZCOL05-MAIN
  5
651
 10
0.0
 20
0.0
 30
0.0
 70
   128
 71
   385
 72
  -427
 73
   311
  0
VERTEX
  8
04ZCOL05-MAIN
  5
652
 10
0.0
 20
0.0
 30
0.0
 70
   128
 71
   308
 72
  -383
 73
   384
  0
VERTEX
  8
04ZCOL05-MAIN
  5
653
 10
0.0
 20
0.0
 30
0.0
 70
   128
 71
   427
 72
  -384
 73
   383
  0
VERTEX
  8
04ZCOL05-MAIN
  5
654
 10
0.0
 20
0.0
 30
0.0
 70
   128
 71
   285
 72
  -308
 73
   382
  0
VERTEX
  8
04ZCOL05-MAIN
  5
655
 10
0.0
 20
0.0
 30
0.0
 70
   128
 71
   384
 72
  -382
 73
   308
  0
VERTEX
  8
04ZCOL05-MAIN
  5
656
 10
0.0
 20
0.0
 30
0.0
 70
   128
 71
   380
 72
  -360
 73
   425
  0
VERTEX
  8
04ZCOL05-MAIN
  5
657
 10
0.0
 20
0.0
 30
0.0
 70
   128
 71
   381
 72
  -425
 73
   360
  0
VERTEX
  8
04ZCOL05-MAIN
  5
658
 10
0.0
 20
0.0
 30
0.0
 70
   128
 71
   307
 72
  -380
 73
   378
  0
VERTEX
  8
04ZCOL05-MAIN
  5
659
 10
0.0
 20
0.0
 30
0.0
 70
   128
 71
   425
 72
  -378
 73
   380
  0
VERTEX
  8
04ZCOL05-MAIN
  5
65A
 10
0.0
 20
0.0
 30
0.0
 70
   128
 71
   379
 72
  -307
 73
   424
  0
VERTEX
  8
04ZCOL05-MAIN
  5
65B
 10
0.0
 20
0.0
 30
0.0
 70
   128
 71
   378
 72
  -424
 73
   307
  0
VERTEX
  8
04ZCOL05-MAIN
  5
65C
 10
0.0
 20
0.0
 30
0.0
 70
   128
 71
   377
 72
  -379
 73
   376
  0
VERTEX
  8
04ZCOL05-MAIN
  5
65D
 10
0.0
 20
0.0
 30
0.0
 70
   128
 71
   424
 72
  -376
 73
   379
  0
VERTEX
  8
04ZCOL05-MAIN
  5
65E
 10
0.0
 20
0.0
 30
0.0
 70
   128
 71
   303
 72
  -377
 73
   421
  0
VERTEX
  8
04ZCOL05-MAIN
  5
65F
 10
0.0
 20
0.0
 30
0.0
 70
   128
 71
   376
 72
  -421
 73
   377
  0
VERTEX
  8
04ZCOL05-MAIN
  5
660
 10
0.0
 20
0.0
 30
0.0
 70
   128
 71
   302
 72
  -303
 73
   375
  0
VERTEX
  8
04ZCOL05-MAIN
  5
661
 10
0.0
 20
0.0
 30
0.0
 70
   128
 71
   421
 72
  -375
 73
   303
  0
VERTEX
  8
04ZCOL05-MAIN
  5
662
 10
0.0
 20
0.0
 30
0.0
 70
   128
 71
   300
 72
  -302
 73
   419
  0
VERTEX
  8
04ZCOL05-MAIN
  5
663
 10
0.0
 20
0.0
 30
0.0
 70
   128
 71
   375
 72
  -419
 73
   302
  0
VERTEX
  8
04ZCOL05-MAIN
  5
664
 10
0.0
 20
0.0
 30
0.0
 70
   128
 71
   374
 72
  -300
 73
   418
  0
VERTEX
  8
04ZCOL05-MAIN
  5
665
 10
0.0
 20
0.0
 30
0.0
 70
   128
 71
   419
 72
  -418
 73
   300
  0
VERTEX
  8
04ZCOL05-MAIN
  5
666
 10
0.0
 20
0.0
 30
0.0
 70
   128
 71
   373
 72
  -374
 73
   417
  0
VERTEX
  8
04ZCOL05-MAIN
  5
667
 10
0.0
 20
0.0
 30
0.0
 70
   128
 71
   418
 72
  -417
 73
   374
  0
VERTEX
  8
04ZCOL05-MAIN
  5
668
 10
0.0
 20
0.0
 30
0.0
 70
   128
 71
   372
 72
  -373
 73
   416
  0
VERTEX
  8
04ZCOL05-MAIN
  5
669
 10
0.0
 20
0.0
 30
0.0
 70
   128
 71
   417
 72
  -416
 73
   373
  0
VERTEX
  8
04ZCOL05-MAIN
  5
66A
 10
0.0
 20
0.0
 30
0.0
 70
   128
 71
   298
 72
  -372
 73
   369
  0
VERTEX
  8
04ZCOL05-MAIN
  5
66B
 10
0.0
 20
0.0
 30
0.0
 70
   128
 71
   416
 72
  -369
 73
   372
  0
VERTEX
  8
04ZCOL05-MAIN
  5
66C
 10
0.0
 20
0.0
 30
0.0
 70
   128
 71
   371
 72
  -298
 73
   370
  0
VERTEX
  8
04ZCOL05-MAIN
  5
66D
 10
0.0
 20
0.0
 30
0.0
 70
   128
 71
   369
 72
  -370
 73
   298
  0
VERTEX
  8
04ZCOL05-MAIN
  5
66E
 10
0.0
 20
0.0
 30
0.0
 70
   128
 71
   296
 72
  -371
 73
   368
  0
VERTEX
  8
04ZCOL05-MAIN
  5
66F
 10
0.0
 20
0.0
 30
0.0
 70
   128
 71
   370
 72
  -368
 73
   371
  0
VERTEX
  8
04ZCOL05-MAIN
  5
670
 10
0.0
 20
0.0
 30
0.0
 70
   128
 71
   294
 72
  -296
 73
   367
  0
VERTEX
  8
04ZCOL05-MAIN
  5
671
 10
0.0
 20
0.0
 30
0.0
 70
   128
 71
   368
 72
  -367
 73
   296
  0
VERTEX
  8
04ZCOL05-MAIN
  5
672
 10
0.0
 20
0.0
 30
0.0
 70
   128
 71
   366
 72
  -294
 73
   364
  0
VERTEX
  8
04ZCOL05-MAIN
  5
673
 10
0.0
 20
0.0
 30
0.0
 70
   128
 71
   367
 72
  -364
 73
   294
  0
VERTEX
  8
04ZCOL05-MAIN
  5
674
 10
0.0
 20
0.0
 30
0.0
 70
   128
 71
   293
 72
  -366
 73
   365
  0
VERTEX
  8
04ZCOL05-MAIN
  5
675
 10
0.0
 20
0.0
 30
0.0
 70
   128
 71
   364
 72
  -365
 73
   366
  0
VERTEX
  8
04ZCOL05-MAIN
  5
676
 10
0.0
 20
0.0
 30
0.0
 70
   128
 71
   363
 72
  -293
 73
   411
  0
VERTEX
  8
04ZCOL05-MAIN
  5
677
 10
0.0
 20
0.0
 30
0.0
 70
   128
 71
   365
 72
  -411
 73
   293
  0
VERTEX
  8
04ZCOL05-MAIN
  5
678
 10
0.0
 20
0.0
 30
0.0
 70
   128
 71
   291
 72
  -363
 73
   409
  0
VERTEX
  8
04ZCOL05-MAIN
  5
679
 10
0.0
 20
0.0
 30
0.0
 70
   128
 71
   411
 72
  -409
 73
   363
  0
VERTEX
  8
04ZCOL05-MAIN
  5
67A
 10
0.0
 20
0.0
 30
0.0
 70
   128
 71
   361
 72
  -291
 73
   362
  0
VERTEX
  8
04ZCOL05-MAIN
  5
67B
 10
0.0
 20
0.0
 30
0.0
 70
   128
 71
   409
 72
  -362
 73
   291
  0
VERTEX
  8
04ZCOL05-MAIN
  5
67C
 10
0.0
 20
0.0
 30
0.0
 70
   128
 71
   290
 72
  -361
 73
   358
  0
VERTEX
  8
04ZCOL05-MAIN
  5
67D
 10
0.0
 20
0.0
 30
0.0
 70
   128
 71
   362
 72
  -358
 73
   361
  0
VERTEX
  8
04ZCOL05-MAIN
  5
67E
 10
0.0
 20
0.0
 30
0.0
 70
   128
 71
   360
 72
  -359
 73
   381
  0
VERTEX
  8
04ZCOL05-MAIN
  5
67F
 10
0.0
 20
0.0
 30
0.0
 70
   128
 71
   356
 72
  -381
 73
   359
  0
VERTEX
  8
04ZCOL05-MAIN
  5
680
 10
0.0
 20
0.0
 30
0.0
 70
   128
 71
   318
 72
  -290
 73
   357
  0
VERTEX
  8
04ZCOL05-MAIN
  5
681
 10
0.0
 20
0.0
 30
0.0
 70
   128
 71
   358
 72
  -357
 73
   290
  0
VERTEX
  8
04ZCOL05-MAIN
  5
682
 10
0.0
 20
0.0
 30
0.0
 70
   128
 71
   359
 72
  -351
 73
   356
  0
VERTEX
  8
04ZCOL05-MAIN
  5
683
 10
0.0
 20
0.0
 30
0.0
 70
   128
 71
   350
 72
  -356
 73
   351
  0
VERTEX
  8
04ZCOL05-MAIN
  5
684
 10
0.0
 20
0.0
 30
0.0
 70
   128
 71
   394
 72
  -285
 73
   445
  0
VERTEX
  8
04ZCOL05-MAIN
  5
685
 10
0.0
 20
0.0
 30
0.0
 70
   128
 71
   382
 72
  -445
 73
   285
  0
VERTEX
  8
04ZCOL05-MAIN
  5
686
 10
0.0
 20
0.0
 30
0.0
 70
   128
 71
   352
 72
  -353
 73
   355
  0
VERTEX
  8
04ZCOL05-MAIN
  5
687
 10
0.0
 20
0.0
 30
0.0
 70
   128
 71
   354
 72
  -355
 73
   353
  0
VERTEX
  8
04ZCOL05-MAIN
  5
688
 10
0.0
 20
0.0
 30
0.0
 70
   128
 71
   282
 72
  -352
 73
   349
  0
VERTEX
  8
04ZCOL05-MAIN
  5
689
 10
0.0
 20
0.0
 30
0.0
 70
   128
 71
   355
 72
  -349
 73
   352
  0
VERTEX
  8
04ZCOL05-MAIN
  5
68A
 10
0.0
 20
0.0
 30
0.0
 70
   128
 71
   351
 72
  -282
 73
   350
  0
VERTEX
  8
04ZCOL05-MAIN
  5
68B
 10
0.0
 20
0.0
 30
0.0
 70
   128
 71
   349
 72
  -350
 73
   282
  0
VERTEX
  8
04ZCOL05-MAIN
  5
68C
 10
0.0
 20
0.0
 30
0.0
 70
   128
 71
   321
 72
  -280
 73
   348
  0
VERTEX
  8
04ZCOL05-MAIN
  5
68D
 10
0.0
 20
0.0
 30
0.0
 70
   128
 71
   322
 72
  -348
 73
   280
  0
VERTEX
  8
04ZCOL05-MAIN
  5
68E
 10
0.0
 20
0.0
 30
0.0
 70
   128
 71
   347
 72
  -279
 73
   345
  0
VERTEX
  8
04ZCOL05-MAIN
  5
68F
 10
0.0
 20
0.0
 30
0.0
 70
   128
 71
   346
 72
  -345
 73
   279
  0
VERTEX
  8
04ZCOL05-MAIN
  5
690
 10
0.0
 20
0.0
 30
0.0
 70
   128
 71
   278
 72
  -347
 73
   405
  0
VERTEX
  8
04ZCOL05-MAIN
  5
691
 10
0.0
 20
0.0
 30
0.0
 70
   128
 71
   345
 72
  -405
 73
   347
  0
VERTEX
  8
04ZCOL05-MAIN
  5
692
 10
0.0
 20
0.0
 30
0.0
 70
   128
 71
   343
 72
  -278
 73
   344
  0
VERTEX
  8
04ZCOL05-MAIN
  5
693
 10
0.0
 20
0.0
 30
0.0
 70
   128
 71
   405
 72
  -344
 73
   278
  0
VERTEX
  8
04ZCOL05-MAIN
  5
694
 10
0.0
 20
0.0
 30
0.0
 70
   128
 71
   274
 72
  -343
 73
   342
  0
VERTEX
  8
04ZCOL05-MAIN
  5
695
 10
0.0
 20
0.0
 30
0.0
 70
   128
 71
   344
 72
  -342
 73
   343
  0
VERTEX
  8
04ZCOL05-MAIN
  5
696
 10
0.0
 20
0.0
 30
0.0
 70
   128
 71
   341
 72
  -274
 73
   404
  0
VERTEX
  8
04ZCOL05-MAIN
  5
697
 10
0.0
 20
0.0
 30
0.0
 70
   128
 71
   342
 72
  -404
 73
   274
  0
VERTEX
  8
04ZCOL05-MAIN
  5
698
 10
0.0
 20
0.0
 30
0.0
 70
   128
 71
   340
 72
  -341
 73
   401
  0
VERTEX
  8
04ZCOL05-MAIN
  5
699
 10
0.0
 20
0.0
 30
0.0
 70
   128
 71
   404
 72
  -401
 73
   341
  0
VERTEX
  8
04ZCOL05-MAIN
  5
69A
 10
0.0
 20
0.0
 30
0.0
 70
   128
 71
   339
 72
  -340
 73
   338
  0
VERTEX
  8
04ZCOL05-MAIN
  5
69B
 10
0.0
 20
0.0
 30
0.0
 70
   128
 71
   401
 72
  -338
 73
   340
  0
VERTEX
  8
04ZCOL05-MAIN
  5
69C
 10
0.0
 20
0.0
 30
0.0
 70
   128
 71
   262
 72
  -339
 73
   337
  0
VERTEX
  8
04ZCOL05-MAIN
  5
69D
 10
0.0
 20
0.0
 30
0.0
 70
   128
 71
   338
 72
  -337
 73
   339
  0
VERTEX
  8
04ZCOL05-MAIN
  5
69E
 10
0.0
 20
0.0
 30
0.0
 70
   128
 71
   335
 72
  -328
 73
   336
  0
VERTEX
  8
04ZCOL05-MAIN
  5
69F
 10
0.0
 20
0.0
 30
0.0
 70
   128
 71
   397
 72
  -336
 73
   328
  0
VERTEX
  8
04ZCOL05-MAIN
  5
6A0
 10
0.0
 20
0.0
 30
0.0
 70
   128
 71
   265
 72
  -335
 73
   326
  0
VERTEX
  8
04ZCOL05-MAIN
  5
6A1
 10
0.0
 20
0.0
 30
0.0
 70
   128
 71
   336
 72
  -326
 73
   335
  0
VERTEX
  8
04ZCOL05-MAIN
  5
6A2
 10
0.0
 20
0.0
 30
0.0
 70
   128
 71
   332
 72
  -334
 73
   330
  0
VERTEX
  8
04ZCOL05-MAIN
  5
6A3
 10
0.0
 20
0.0
 30
0.0
 70
   128
 71
   325
 72
  -330
 73
   334
  0
VERTEX
  8
04ZCOL05-MAIN
  5
6A4
 10
0.0
 20
0.0
 30
0.0
 70
   128
 71
   333
 72
  -332
 73
   331
  0
VERTEX
  8
04ZCOL05-MAIN
  5
6A5
 10
0.0
 20
0.0
 30
0.0
 70
   128
 71
   330
 72
  -331
 73
   332
  0
VERTEX
  8
04ZCOL05-MAIN
  5
6A6
 10
0.0
 20
0.0
 30
0.0
 70
   128
 71
   327
 72
  -333
 73
   329
  0
VERTEX
  8
04ZCOL05-MAIN
  5
6A7
 10
0.0
 20
0.0
 30
0.0
 70
   128
 71
   331
 72
  -329
 73
   333
  0
VERTEX
  8
04ZCOL05-MAIN
  5
6A8
 10
0.0
 20
0.0
 30
0.0
 70
   128
 71
   328
 72
  -327
 73
   397
  0
VERTEX
  8
04ZCOL05-MAIN
  5
6A9
 10
0.0
 20
0.0
 30
0.0
 70
   128
 71
   329
 72
  -397
 73
   327
  0
VERTEX
  8
04ZCOL05-MAIN
  5
6AA
 10
0.0
 20
0.0
 30
0.0
 70
   128
 71
   279
 72
  -265
 73
   346
  0
VERTEX
  8
04ZCOL05-MAIN
  5
6AB
 10
0.0
 20
0.0
 30
0.0
 70
   128
 71
   326
 72
  -346
 73
   265
  0
VERTEX
  8
04ZCOL05-MAIN
  5
6AC
 10
0.0
 20
0.0
 30
0.0
 70
   128
 71
   334
 72
  -323
 73
   325
  0
VERTEX
  8
04ZCOL05-MAIN
  5
6AD
 10
0.0
 20
0.0
 30
0.0
 70
   128
 71
   324
 72
  -325
 73
   323
  0
VERTEX
  8
04ZCOL05-MAIN
  5
6AE
 10
0.0
 20
0.0
 30
0.0
 70
   128
 71
   280
 72
  -262
 73
   322
  0
VERTEX
  8
04ZCOL05-MAIN
  5
6AF
 10
0.0
 20
0.0
 30
0.0
 70
   128
 71
   337
 72
  -322
 73
   262
  0
VERTEX
  8
04ZCOL05-MAIN
  5
6B0
 10
0.0
 20
0.0
 30
0.0
 70
   128
 71
   353
 72
  -321
 73
   354
  0
VERTEX
  8
04ZCOL05-MAIN
  5
6B1
 10
0.0
 20
0.0
 30
0.0
 70
   128
 71
   348
 72
  -354
 73
   321
  0
VERTEX
  8
04ZCOL05-MAIN
  5
6B2
 10
0.0
 20
0.0
 30
0.0
 70
   128
 71
   320
 72
  -223
 73
   319
  0
VERTEX
  8
04ZCOL05-MAIN
  5
6B3
 10
0.0
 20
0.0
 30
0.0
 70
   128
 71
   394
 72
  -319
 73
   223
  0
VERTEX
  8
04ZCOL05-MAIN
  5
6B4
 10
0.0
 20
0.0
 30
0.0
 70
   128
 71
   258
 72
  -226
 73
   393
  0
VERTEX
  8
04ZCOL05-MAIN
  5
6B5
 10
0.0
 20
0.0
 30
0.0
 70
   128
 71
   318
 72
  -393
 73
   226
  0
VERTEX
  8
04ZCOL05-MAIN
  5
6B6
 10
0.0
 20
0.0
 30
0.0
 70
   128
 71
   316
 72
  -258
 73
   392
  0
VERTEX
  8
04ZCOL05-MAIN
  5
6B7
 10
0.0
 20
0.0
 30
0.0
 70
   128
 71
   393
 72
  -392
 73
   258
  0
VERTEX
  8
04ZCOL05-MAIN
  5
6B8
 10
0.0
 20
0.0
 30
0.0
 70
   128
 71
   317
 72
  -316
 73
   315
  0
VERTEX
  8
04ZCOL05-MAIN
  5
6B9
 10
0.0
 20
0.0
 30
0.0
 70
   128
 71
   392
 72
  -315
 73
   316
  0
VERTEX
  8
04ZCOL05-MAIN
  5
6BA
 10
0.0
 20
0.0
 30
0.0
 70
   128
 71
   256
 72
  -317
 73
   391
  0
VERTEX
  8
04ZCOL05-MAIN
  5
6BB
 10
0.0
 20
0.0
 30
0.0
 70
   128
 71
   315
 72
  -391
 73
   317
  0
VERTEX
  8
04ZCOL05-MAIN
  5
6BC
 10
0.0
 20
0.0
 30
0.0
 70
   128
 71
   254
 72
  -256
 73
   314
  0
VERTEX
  8
04ZCOL05-MAIN
  5
6BD
 10
0.0
 20
0.0
 30
0.0
 70
   128
 71
   391
 72
  -314
 73
   256
  0
VERTEX
  8
04ZCOL05-MAIN
  5
6BE
 10
0.0
 20
0.0
 30
0.0
 70
   128
 71
   253
 72
  -254
 73
   313
  0
VERTEX
  8
04ZCOL05-MAIN
  5
6BF
 10
0.0
 20
0.0
 30
0.0
 70
   128
 71
   314
 72
  -313
 73
   254
  0
VERTEX
  8
04ZCOL05-MAIN
  5
6C0
 10
0.0
 20
0.0
 30
0.0
 70
   128
 71
   312
 72
  -253
 73
   390
  0
VERTEX
  8
04ZCOL05-MAIN
  5
6C1
 10
0.0
 20
0.0
 30
0.0
 70
   128
 71
   313
 72
  -390
 73
   253
  0
VERTEX
  8
04ZCOL05-MAIN
  5
6C2
 10
0.0
 20
0.0
 30
0.0
 70
   128
 71
   250
 72
  -312
 73
   389
  0
VERTEX
  8
04ZCOL05-MAIN
  5
6C3
 10
0.0
 20
0.0
 30
0.0
 70
   128
 71
   390
 72
  -389
 73
   312
  0
VERTEX
  8
04ZCOL05-MAIN
  5
6C4
 10
0.0
 20
0.0
 30
0.0
 70
   128
 71
   248
 72
  -250
 73
   387
  0
VERTEX
  8
04ZCOL05-MAIN
  5
6C5
 10
0.0
 20
0.0
 30
0.0
 70
   128
 71
   389
 72
  -387
 73
   250
  0
VERTEX
  8
04ZCOL05-MAIN
  5
6C6
 10
0.0
 20
0.0
 30
0.0
 70
   128
 71
   247
 72
  -248
 73
   311
  0
VERTEX
  8
04ZCOL05-MAIN
  5
6C7
 10
0.0
 20
0.0
 30
0.0
 70
   128
 71
   387
 72
  -311
 73
   248
  0
VERTEX
  8
04ZCOL05-MAIN
  5
6C8
 10
0.0
 20
0.0
 30
0.0
 70
   128
 71
   310
 72
  -247
 73
   383
  0
VERTEX
  8
04ZCOL05-MAIN
  5
6C9
 10
0.0
 20
0.0
 30
0.0
 70
   128
 71
   311
 72
  -383
 73
   247
  0
VERTEX
  8
04ZCOL05-MAIN
  5
6CA
 10
0.0
 20
0.0
 30
0.0
 70
   128
 71
   309
 72
  -310
 73
   308
  0
VERTEX
  8
04ZCOL05-MAIN
  5
6CB
 10
0.0
 20
0.0
 30
0.0
 70
   128
 71
   383
 72
  -308
 73
   310
  0
VERTEX
  8
04ZCOL05-MAIN
  5
6CC
 10
0.0
 20
0.0
 30
0.0
 70
   128
 71
   286
 72
  -309
 73
   285
  0
VERTEX
  8
04ZCOL05-MAIN
  5
6CD
 10
0.0
 20
0.0
 30
0.0
 70
   128
 71
   308
 72
  -285
 73
   309
  0
VERTEX
  8
04ZCOL05-MAIN
  5
6CE
 10
0.0
 20
0.0
 30
0.0
 70
   128
 71
   306
 72
  -227
 73
   380
  0
VERTEX
  8
04ZCOL05-MAIN
  5
6CF
 10
0.0
 20
0.0
 30
0.0
 70
   128
 71
   360
 72
  -380
 73
   227
  0
VERTEX
  8
04ZCOL05-MAIN
  5
6D0
 10
0.0
 20
0.0
 30
0.0
 70
   128
 71
   244
 72
  -306
 73
   307
  0
VERTEX
  8
04ZCOL05-MAIN
  5
6D1
 10
0.0
 20
0.0
 30
0.0
 70
   128
 71
   380
 72
  -307
 73
   306
  0
VERTEX
  8
04ZCOL05-MAIN
  5
6D2
 10
0.0
 20
0.0
 30
0.0
 70
   128
 71
   304
 72
  -244
 73
   379
  0
VERTEX
  8
04ZCOL05-MAIN
  5
6D3
 10
0.0
 20
0.0
 30
0.0
 70
   128
 71
   307
 72
  -379
 73
   244
  0
VERTEX
  8
04ZCOL05-MAIN
  5
6D4
 10
0.0
 20
0.0
 30
0.0
 70
   128
 71
   305
 72
  -304
 73
   377
  0
VERTEX
  8
04ZCOL05-MAIN
  5
6D5
 10
0.0
 20
0.0
 30
0.0
 70
   128
 71
   379
 72
  -377
 73
   304
  0
VERTEX
  8
04ZCOL05-MAIN
  5
6D6
 10
0.0
 20
0.0
 30
0.0
 70
   128
 71
   241
 72
  -305
 73
   303
  0
VERTEX
  8
04ZCOL05-MAIN
  5
6D7
 10
0.0
 20
0.0
 30
0.0
 70
   128
 71
   377
 72
  -303
 73
   305
  0
VERTEX
  8
04ZCOL05-MAIN
  5
6D8
 10
0.0
 20
0.0
 30
0.0
 70
   128
 71
   301
 72
  -241
 73
   302
  0
VERTEX
  8
04ZCOL05-MAIN
  5
6D9
 10
0.0
 20
0.0
 30
0.0
 70
   128
 71
   303
 72
  -302
 73
   241
  0
VERTEX
  8
04ZCOL05-MAIN
  5
6DA
 10
0.0
 20
0.0
 30
0.0
 70
   128
 71
   240
 72
  -301
 73
   300
  0
VERTEX
  8
04ZCOL05-MAIN
  5
6DB
 10
0.0
 20
0.0
 30
0.0
 70
   128
 71
   302
 72
  -300
 73
   301
  0
VERTEX
  8
04ZCOL05-MAIN
  5
6DC
 10
0.0
 20
0.0
 30
0.0
 70
   128
 71
   239
 72
  -240
 73
   374
  0
VERTEX
  8
04ZCOL05-MAIN
  5
6DD
 10
0.0
 20
0.0
 30
0.0
 70
   128
 71
   300
 72
  -374
 73
   240
  0
VERTEX
  8
04ZCOL05-MAIN
  5
6DE
 10
0.0
 20
0.0
 30
0.0
 70
   128
 71
   236
 72
  -239
 73
   373
  0
VERTEX
  8
04ZCOL05-MAIN
  5
6DF
 10
0.0
 20
0.0
 30
0.0
 70
   128
 71
   374
 72
  -373
 73
   239
  0
VERTEX
  8
04ZCOL05-MAIN
  5
6E0
 10
0.0
 20
0.0
 30
0.0
 70
   128
 71
   299
 72
  -236
 73
   372
  0
VERTEX
  8
04ZCOL05-MAIN
  5
6E1
 10
0.0
 20
0.0
 30
0.0
 70
   128
 71
   373
 72
  -372
 73
   236
  0
VERTEX
  8
04ZCOL05-MAIN
  5
6E2
 10
0.0
 20
0.0
 30
0.0
 70
   128
 71
   235
 72
  -299
 73
   298
  0
VERTEX
  8
04ZCOL05-MAIN
  5
6E3
 10
0.0
 20
0.0
 30
0.0
 70
   128
 71
   372
 72
  -298
 73
   299
  0
VERTEX
  8
04ZCOL05-MAIN
  5
6E4
 10
0.0
 20
0.0
 30
0.0
 70
   128
 71
   295
 72
  -235
 73
   371
  0
VERTEX
  8
04ZCOL05-MAIN
  5
6E5
 10
0.0
 20
0.0
 30
0.0
 70
   128
 71
   298
 72
  -371
 73
   235
  0
VERTEX
  8
04ZCOL05-MAIN
  5
6E6
 10
0.0
 20
0.0
 30
0.0
 70
   128
 71
   297
 72
  -295
 73
   296
  0
VERTEX
  8
04ZCOL05-MAIN
  5
6E7
 10
0.0
 20
0.0
 30
0.0
 70
   128
 71
   371
 72
  -296
 73
   295
  0
VERTEX
  8
04ZCOL05-MAIN
  5
6E8
 10
0.0
 20
0.0
 30
0.0
 70
   128
 71
   233
 72
  -297
 73
   294
  0
VERTEX
  8
04ZCOL05-MAIN
  5
6E9
 10
0.0
 20
0.0
 30
0.0
 70
   128
 71
   296
 72
  -294
 73
   297
  0
VERTEX
  8
04ZCOL05-MAIN
  5
6EA
 10
0.0
 20
0.0
 30
0.0
 70
   128
 71
   232
 72
  -233
 73
   366
  0
VERTEX
  8
04ZCOL05-MAIN
  5
6EB
 10
0.0
 20
0.0
 30
0.0
 70
   128
 71
   294
 72
  -366
 73
   233
  0
VERTEX
  8
04ZCOL05-MAIN
  5
6EC
 10
0.0
 20
0.0
 30
0.0
 70
   128
 71
   230
 72
  -232
 73
   293
  0
VERTEX
  8
04ZCOL05-MAIN
  5
6ED
 10
0.0
 20
0.0
 30
0.0
 70
   128
 71
   366
 72
  -293
 73
   232
  0
VERTEX
  8
04ZCOL05-MAIN
  5
6EE
 10
0.0
 20
0.0
 30
0.0
 70
   128
 71
   229
 72
  -230
 73
   363
  0
VERTEX
  8
04ZCOL05-MAIN
  5
6EF
 10
0.0
 20
0.0
 30
0.0
 70
   128
 71
   293
 72
  -363
 73
   230
  0
VERTEX
  8
04ZCOL05-MAIN
  5
6F0
 10
0.0
 20
0.0
 30
0.0
 70
   128
 71
   292
 72
  -229
 73
   291
  0
VERTEX
  8
04ZCOL05-MAIN
  5
6F1
 10
0.0
 20
0.0
 30
0.0
 70
   128
 71
   363
 72
  -291
 73
   229
  0
VERTEX
  8
04ZCOL05-MAIN
  5
6F2
 10
0.0
 20
0.0
 30
0.0
 70
   128
 71
   289
 72
  -292
 73
   361
  0
VERTEX
  8
04ZCOL05-MAIN
  5
6F3
 10
0.0
 20
0.0
 30
0.0
 70
   128
 71
   291
 72
  -361
 73
   292
  0
VERTEX
  8
04ZCOL05-MAIN
  5
6F4
 10
0.0
 20
0.0
 30
0.0
 70
   128
 71
   288
 72
  -289
 73
   290
  0
VERTEX
  8
04ZCOL05-MAIN
  5
6F5
 10
0.0
 20
0.0
 30
0.0
 70
   128
 71
   361
 72
  -290
 73
   289
  0
VERTEX
  8
04ZCOL05-MAIN
  5
6F6
 10
0.0
 20
0.0
 30
0.0
 70
   128
 71
   227
 72
  -287
 73
   360
  0
VERTEX
  8
04ZCOL05-MAIN
  5
6F7
 10
0.0
 20
0.0
 30
0.0
 70
   128
 71
   359
 72
  -360
 73
   287
  0
VERTEX
  8
04ZCOL05-MAIN
  5
6F8
 10
0.0
 20
0.0
 30
0.0
 70
   128
 71
   226
 72
  -288
 73
   318
  0
VERTEX
  8
04ZCOL05-MAIN
  5
6F9
 10
0.0
 20
0.0
 30
0.0
 70
   128
 71
   290
 72
  -318
 73
   288
  0
VERTEX
  8
04ZCOL05-MAIN
  5
6FA
 10
0.0
 20
0.0
 30
0.0
 70
   128
 71
   287
 72
  -281
 73
   359
  0
VERTEX
  8
04ZCOL05-MAIN
  5
6FB
 10
0.0
 20
0.0
 30
0.0
 70
   128
 71
   351
 72
  -359
 73
   281
  0
VERTEX
  8
04ZCOL05-MAIN
  5
6FC
 10
0.0
 20
0.0
 30
0.0
 70
   128
 71
   223
 72
  -286
 73
   394
  0
VERTEX
  8
04ZCOL05-MAIN
  5
6FD
 10
0.0
 20
0.0
 30
0.0
 70
   128
 71
   285
 72
  -394
 73
   286
  0
VERTEX
  8
04ZCOL05-MAIN
  5
6FE
 10
0.0
 20
0.0
 30
0.0
 70
   128
 71
   284
 72
  -261
 73
   352
  0
VERTEX
  8
04ZCOL05-MAIN
  5
6FF
 10
0.0
 20
0.0
 30
0.0
 70
   128
 71
   353
 72
  -352
 73
   261
  0
VERTEX
  8
04ZCOL05-MAIN
  5
700
 10
0.0
 20
0.0
 30
0.0
 70
   128
 71
   283
 72
  -284
 73
   282
  0
VERTEX
  8
04ZCOL05-MAIN
  5
701
 10
0.0
 20
0.0
 30
0.0
 70
   128
 71
   352
 72
  -282
 73
   284
  0
VERTEX
  8
04ZCOL05-MAIN
  5
702
 10
0.0
 20
0.0
 30
0.0
 70
   128
 71
   281
 72
  -283
 73
   351
  0
VERTEX
  8
04ZCOL05-MAIN
  5
703
 10
0.0
 20
0.0
 30
0.0
 70
   128
 71
   282
 72
  -351
 73
   283
  0
VERTEX
  8
04ZCOL05-MAIN
  5
704
 10
0.0
 20
0.0
 30
0.0
 70
   128
 71
   260
 72
  -206
 73
   321
  0
VERTEX
  8
04ZCOL05-MAIN
  5
705
 10
0.0
 20
0.0
 30
0.0
 70
   128
 71
   280
 72
  -321
 73
   206
  0
VERTEX
  8
04ZCOL05-MAIN
  5
706
 10
0.0
 20
0.0
 30
0.0
 70
   128
 71
   219
 72
  -266
 73
   347
  0
VERTEX
  8
04ZCOL05-MAIN
  5
707
 10
0.0
 20
0.0
 30
0.0
 70
   128
 71
   279
 72
  -347
 73
   266
  0
VERTEX
  8
04ZCOL05-MAIN
  5
708
 10
0.0
 20
0.0
 30
0.0
 70
   128
 71
   277
 72
  -219
 73
   278
  0
VERTEX
  8
04ZCOL05-MAIN
  5
709
 10
0.0
 20
0.0
 30
0.0
 70
   128
 71
   347
 72
  -278
 73
   219
  0
VERTEX
  8
04ZCOL05-MAIN
  5
70A
 10
0.0
 20
0.0
 30
0.0
 70
   128
 71
   276
 72
  -277
 73
   343
  0
VERTEX
  8
04ZCOL05-MAIN
  5
70B
 10
0.0
 20
0.0
 30
0.0
 70
   128
 71
   278
 72
  -343
 73
   277
  0
VERTEX
  8
04ZCOL05-MAIN
  5
70C
 10
0.0
 20
0.0
 30
0.0
 70
   128
 71
   217
 72
  -276
 73
   274
  0
VERTEX
  8
04ZCOL05-MAIN
  5
70D
 10
0.0
 20
0.0
 30
0.0
 70
   128
 71
   343
 72
  -274
 73
   276
  0
VERTEX
  8
04ZCOL05-MAIN
  5
70E
 10
0.0
 20
0.0
 30
0.0
 70
   128
 71
   275
 72
  -217
 73
   341
  0
VERTEX
  8
04ZCOL05-MAIN
  5
70F
 10
0.0
 20
0.0
 30
0.0
 70
   128
 71
   274
 72
  -341
 73
   217
  0
VERTEX
  8
04ZCOL05-MAIN
  5
710
 10
0.0
 20
0.0
 30
0.0
 70
   128
 71
   273
 72
  -275
 73
   340
  0
VERTEX
  8
04ZCOL05-MAIN
  5
711
 10
0.0
 20
0.0
 30
0.0
 70
   128
 71
   341
 72
  -340
 73
   275
  0
VERTEX
  8
04ZCOL05-MAIN
  5
712
 10
0.0
 20
0.0
 30
0.0
 70
   128
 71
   272
 72
  -273
 73
   339
  0
VERTEX
  8
04ZCOL05-MAIN
  5
713
 10
0.0
 20
0.0
 30
0.0
 70
   128
 71
   340
 72
  -339
 73
   273
  0
VERTEX
  8
04ZCOL05-MAIN
  5
714
 10
0.0
 20
0.0
 30
0.0
 70
   128
 71
   263
 72
  -272
 73
   262
  0
VERTEX
  8
04ZCOL05-MAIN
  5
715
 10
0.0
 20
0.0
 30
0.0
 70
   128
 71
   339
 72
  -262
 73
   272
  0
VERTEX
  8
04ZCOL05-MAIN
  5
716
 10
0.0
 20
0.0
 30
0.0
 70
   128
 71
   212
 72
  -271
 73
   335
  0
VERTEX
  8
04ZCOL05-MAIN
  5
717
 10
0.0
 20
0.0
 30
0.0
 70
   128
 71
   328
 72
  -335
 73
   271
  0
VERTEX
  8
04ZCOL05-MAIN
  5
718
 10
0.0
 20
0.0
 30
0.0
 70
   128
 71
   211
 72
  -212
 73
   265
  0
VERTEX
  8
04ZCOL05-MAIN
  5
719
 10
0.0
 20
0.0
 30
0.0
 70
   128
 71
   335
 72
  -265
 73
   212
  0
VERTEX
  8
04ZCOL05-MAIN
  5
71A
 10
0.0
 20
0.0
 30
0.0
 70
   128
 71
   270
 72
  -269
 73
   332
  0
VERTEX
  8
04ZCOL05-MAIN
  5
71B
 10
0.0
 20
0.0
 30
0.0
 70
   128
 71
   334
 72
  -332
 73
   269
  0
VERTEX
  8
04ZCOL05-MAIN
  5
71C
 10
0.0
 20
0.0
 30
0.0
 70
   128
 71
   268
 72
  -270
 73
   333
  0
VERTEX
  8
04ZCOL05-MAIN
  5
71D
 10
0.0
 20
0.0
 30
0.0
 70
   128
 71
   332
 72
  -333
 73
   270
  0
VERTEX
  8
04ZCOL05-MAIN
  5
71E
 10
0.0
 20
0.0
 30
0.0
 70
   128
 71
   267
 72
  -268
 73
   327
  0
VERTEX
  8
04ZCOL05-MAIN
  5
71F
 10
0.0
 20
0.0
 30
0.0
 70
   128
 71
   333
 72
  -327
 73
   268
  0
VERTEX
  8
04ZCOL05-MAIN
  5
720
 10
0.0
 20
0.0
 30
0.0
 70
   128
 71
   271
 72
  -267
 73
   328
  0
VERTEX
  8
04ZCOL05-MAIN
  5
721
 10
0.0
 20
0.0
 30
0.0
 70
   128
 71
   327
 72
  -328
 73
   267
  0
VERTEX
  8
04ZCOL05-MAIN
  5
722
 10
0.0
 20
0.0
 30
0.0
 70
   128
 71
   266
 72
  -211
 73
   279
  0
VERTEX
  8
04ZCOL05-MAIN
  5
723
 10
0.0
 20
0.0
 30
0.0
 70
   128
 71
   265
 72
  -279
 73
   211
  0
VERTEX
  8
04ZCOL05-MAIN
  5
724
 10
0.0
 20
0.0
 30
0.0
 70
   128
 71
   269
 72
  -264
 73
   334
  0
VERTEX
  8
04ZCOL05-MAIN
  5
725
 10
0.0
 20
0.0
 30
0.0
 70
   128
 71
   323
 72
  -334
 73
   264
  0
VERTEX
  8
04ZCOL05-MAIN
  5
726
 10
0.0
 20
0.0
 30
0.0
 70
   128
 71
   206
 72
  -263
 73
   280
  0
VERTEX
  8
04ZCOL05-MAIN
  5
727
 10
0.0
 20
0.0
 30
0.0
 70
   128
 71
   262
 72
  -280
 73
   263
  0
VERTEX
  8
04ZCOL05-MAIN
  5
728
 10
0.0
 20
0.0
 30
0.0
 70
   128
 71
   261
 72
  -260
 73
   353
  0
VERTEX
  8
04ZCOL05-MAIN
  5
729
 10
0.0
 20
0.0
 30
0.0
 70
   128
 71
   321
 72
  -353
 73
   260
  0
VERTEX
  8
04ZCOL05-MAIN
  5
72A
 10
0.0
 20
0.0
 30
0.0
 70
   128
 71
   204
 72
  -224
 73
   320
  0
VERTEX
  8
04ZCOL05-MAIN
  5
72B
 10
0.0
 20
0.0
 30
0.0
 70
   128
 71
   223
 72
  -320
 73
   224
  0
VERTEX
  8
04ZCOL05-MAIN
  5
72C
 10
0.0
 20
0.0
 30
0.0
 70
   128
 71
   203
 72
  -259
 73
   258
  0
VERTEX
  8
04ZCOL05-MAIN
  5
72D
 10
0.0
 20
0.0
 30
0.0
 70
   128
 71
   226
 72
  -258
 73
   259
  0
VERTEX
  8
04ZCOL05-MAIN
  5
72E
 10
0.0
 20
0.0
 30
0.0
 70
   128
 71
   202
 72
  -203
 73
   316
  0
VERTEX
  8
04ZCOL05-MAIN
  5
72F
 10
0.0
 20
0.0
 30
0.0
 70
   128
 71
   258
 72
  -316
 73
   203
  0
VERTEX
  8
04ZCOL05-MAIN
  5
730
 10
0.0
 20
0.0
 30
0.0
 70
   128
 71
   255
 72
  -202
 73
   317
  0
VERTEX
  8
04ZCOL05-MAIN
  5
731
 10
0.0
 20
0.0
 30
0.0
 70
   128
 71
   316
 72
  -317
 73
   202
  0
VERTEX
  8
04ZCOL05-MAIN
  5
732
 10
0.0
 20
0.0
 30
0.0
 70
   128
 71
   257
 72
  -255
 73
   256
  0
VERTEX
  8
04ZCOL05-MAIN
  5
733
 10
0.0
 20
0.0
 30
0.0
 70
   128
 71
   317
 72
  -256
 73
   255
  0
VERTEX
  8
04ZCOL05-MAIN
  5
734
 10
0.0
 20
0.0
 30
0.0
 70
   128
 71
   200
 72
  -257
 73
   254
  0
VERTEX
  8
04ZCOL05-MAIN
  5
735
 10
0.0
 20
0.0
 30
0.0
 70
   128
 71
   256
 72
  -254
 73
   257
  0
VERTEX
  8
04ZCOL05-MAIN
  5
736
 10
0.0
 20
0.0
 30
0.0
 70
   128
 71
   252
 72
  -200
 73
   253
  0
VERTEX
  8
04ZCOL05-MAIN
  5
737
 10
0.0
 20
0.0
 30
0.0
 70
   128
 71
   254
 72
  -253
 73
   200
  0
VERTEX
  8
04ZCOL05-MAIN
  5
738
 10
0.0
 20
0.0
 30
0.0
 70
   128
 71
   198
 72
  -252
 73
   312
  0
VERTEX
  8
04ZCOL05-MAIN
  5
739
 10
0.0
 20
0.0
 30
0.0
 70
   128
 71
   253
 72
  -312
 73
   252
  0
VERTEX
  8
04ZCOL05-MAIN
  5
73A
 10
0.0
 20
0.0
 30
0.0
 70
   128
 71
   251
 72
  -198
 73
   250
  0
VERTEX
  8
04ZCOL05-MAIN
  5
73B
 10
0.0
 20
0.0
 30
0.0
 70
   128
 71
   312
 72
  -250
 73
   198
  0
VERTEX
  8
04ZCOL05-MAIN
  5
73C
 10
0.0
 20
0.0
 30
0.0
 70
   128
 71
   249
 72
  -251
 73
   248
  0
VERTEX
  8
04ZCOL05-MAIN
  5
73D
 10
0.0
 20
0.0
 30
0.0
 70
   128
 71
   250
 72
  -248
 73
   251
  0
VERTEX
  8
04ZCOL05-MAIN
  5
73E
 10
0.0
 20
0.0
 30
0.0
 70
   128
 71
   196
 72
  -249
 73
   247
  0
VERTEX
  8
04ZCOL05-MAIN
  5
73F
 10
0.0
 20
0.0
 30
0.0
 70
   128
 71
   248
 72
  -247
 73
   249
  0
VERTEX
  8
04ZCOL05-MAIN
  5
740
 10
0.0
 20
0.0
 30
0.0
 70
   128
 71
   246
 72
  -196
 73
   310
  0
VERTEX
  8
04ZCOL05-MAIN
  5
741
 10
0.0
 20
0.0
 30
0.0
 70
   128
 71
   247
 72
  -310
 73
   196
  0
VERTEX
  8
04ZCOL05-MAIN
  5
742
 10
0.0
 20
0.0
 30
0.0
 70
   128
 71
   193
 72
  -246
 73
   309
  0
VERTEX
  8
04ZCOL05-MAIN
  5
743
 10
0.0
 20
0.0
 30
0.0
 70
   128
 71
   310
 72
  -309
 73
   246
  0
VERTEX
  8
04ZCOL05-MAIN
  5
744
 10
0.0
 20
0.0
 30
0.0
 70
   128
 71
   168
 72
  -193
 73
   286
  0
VERTEX
  8
04ZCOL05-MAIN
  5
745
 10
0.0
 20
0.0
 30
0.0
 70
   128
 71
   309
 72
  -286
 73
   193
  0
VERTEX
  8
04ZCOL05-MAIN
  5
746
 10
0.0
 20
0.0
 30
0.0
 70
   128
 71
   245
 72
  -191
 73
   306
  0
VERTEX
  8
04ZCOL05-MAIN
  5
747
 10
0.0
 20
0.0
 30
0.0
 70
   128
 71
   227
 72
  -306
 73
   191
  0
VERTEX
  8
04ZCOL05-MAIN
  5
748
 10
0.0
 20
0.0
 30
0.0
 70
   128
 71
   189
 72
  -245
 73
   244
  0
VERTEX
  8
04ZCOL05-MAIN
  5
749
 10
0.0
 20
0.0
 30
0.0
 70
   128
 71
   306
 72
  -244
 73
   245
  0
VERTEX
  8
04ZCOL05-MAIN
  5
74A
 10
0.0
 20
0.0
 30
0.0
 70
   128
 71
   190
 72
  -189
 73
   304
  0
VERTEX
  8
04ZCOL05-MAIN
  5
74B
 10
0.0
 20
0.0
 30
0.0
 70
   128
 71
   244
 72
  -304
 73
   189
  0
VERTEX
  8
04ZCOL05-MAIN
  5
74C
 10
0.0
 20
0.0
 30
0.0
 70
   128
 71
   243
 72
  -190
 73
   305
  0
VERTEX
  8
04ZCOL05-MAIN
  5
74D
 10
0.0
 20
0.0
 30
0.0
 70
   128
 71
   304
 72
  -305
 73
   190
  0
VERTEX
  8
04ZCOL05-MAIN
  5
74E
 10
0.0
 20
0.0
 30
0.0
 70
   128
 71
   186
 72
  -243
 73
   241
  0
VERTEX
  8
04ZCOL05-MAIN
  5
74F
 10
0.0
 20
0.0
 30
0.0
 70
   128
 71
   305
 72
  -241
 73
   243
  0
VERTEX
  8
04ZCOL05-MAIN
  5
750
 10
0.0
 20
0.0
 30
0.0
 70
   128
 71
   242
 72
  -186
 73
   301
  0
VERTEX
  8
04ZCOL05-MAIN
  5
751
 10
0.0
 20
0.0
 30
0.0
 70
   128
 71
   241
 72
  -301
 73
   186
  0
VERTEX
  8
04ZCOL05-MAIN
  5
752
 10
0.0
 20
0.0
 30
0.0
 70
   128
 71
   238
 72
  -242
 73
   240
  0
VERTEX
  8
04ZCOL05-MAIN
  5
753
 10
0.0
 20
0.0
 30
0.0
 70
   128
 71
   301
 72
  -240
 73
   242
  0
VERTEX
  8
04ZCOL05-MAIN
  5
754
 10
0.0
 20
0.0
 30
0.0
 70
   128
 71
   237
 72
  -238
 73
   239
  0
VERTEX
  8
04ZCOL05-MAIN
  5
755
 10
0.0
 20
0.0
 30
0.0
 70
   128
 71
   240
 72
  -239
 73
   238
  0
VERTEX
  8
04ZCOL05-MAIN
  5
756
 10
0.0
 20
0.0
 30
0.0
 70
   128
 71
   184
 72
  -237
 73
   236
  0
VERTEX
  8
04ZCOL05-MAIN
  5
757
 10
0.0
 20
0.0
 30
0.0
 70
   128
 71
   239
 72
  -236
 73
   237
  0
VERTEX
  8
04ZCOL05-MAIN
  5
758
 10
0.0
 20
0.0
 30
0.0
 70
   128
 71
   234
 72
  -184
 73
   299
  0
VERTEX
  8
04ZCOL05-MAIN
  5
759
 10
0.0
 20
0.0
 30
0.0
 70
   128
 71
   236
 72
  -299
 73
   184
  0
VERTEX
  8
04ZCOL05-MAIN
  5
75A
 10
0.0
 20
0.0
 30
0.0
 70
   128
 71
   183
 72
  -234
 73
   235
  0
VERTEX
  8
04ZCOL05-MAIN
  5
75B
 10
0.0
 20
0.0
 30
0.0
 70
   128
 71
   299
 72
  -235
 73
   234
  0
VERTEX
  8
04ZCOL05-MAIN
  5
75C
 10
0.0
 20
0.0
 30
0.0
 70
   128
 71
   181
 72
  -183
 73
   295
  0
VERTEX
  8
04ZCOL05-MAIN
  5
75D
 10
0.0
 20
0.0
 30
0.0
 70
   128
 71
   235
 72
  -295
 73
   183
  0
VERTEX
  8
04ZCOL05-MAIN
  5
75E
 10
0.0
 20
0.0
 30
0.0
 70
   128
 71
   178
 72
  -181
 73
   297
  0
VERTEX
  8
04ZCOL05-MAIN
  5
75F
 10
0.0
 20
0.0
 30
0.0
 70
   128
 71
   295
 72
  -297
 73
   181
  0
VERTEX
  8
04ZCOL05-MAIN
  5
760
 10
0.0
 20
0.0
 30
0.0
 70
   128
 71
   179
 72
  -178
 73
   233
  0
VERTEX
  8
04ZCOL05-MAIN
  5
761
 10
0.0
 20
0.0
 30
0.0
 70
   128
 71
   297
 72
  -233
 73
   178
  0
VERTEX
  8
04ZCOL05-MAIN
  5
762
 10
0.0
 20
0.0
 30
0.0
 70
   128
 71
   176
 72
  -179
 73
   232
  0
VERTEX
  8
04ZCOL05-MAIN
  5
763
 10
0.0
 20
0.0
 30
0.0
 70
   128
 71
   233
 72
  -232
 73
   179
  0
VERTEX
  8
04ZCOL05-MAIN
  5
764
 10
0.0
 20
0.0
 30
0.0
 70
   128
 71
   231
 72
  -176
 73
   230
  0
VERTEX
  8
04ZCOL05-MAIN
  5
765
 10
0.0
 20
0.0
 30
0.0
 70
   128
 71
   232
 72
  -230
 73
   176
  0
VERTEX
  8
04ZCOL05-MAIN
  5
766
 10
0.0
 20
0.0
 30
0.0
 70
   128
 71
   174
 72
  -231
 73
   229
  0
VERTEX
  8
04ZCOL05-MAIN
  5
767
 10
0.0
 20
0.0
 30
0.0
 70
   128
 71
   230
 72
  -229
 73
   231
  0
VERTEX
  8
04ZCOL05-MAIN
  5
768
 10
0.0
 20
0.0
 30
0.0
 70
   128
 71
   173
 72
  -174
 73
   292
  0
VERTEX
  8
04ZCOL05-MAIN
  5
769
 10
0.0
 20
0.0
 30
0.0
 70
   128
 71
   229
 72
  -292
 73
   174
  0
VERTEX
  8
04ZCOL05-MAIN
  5
76A
 10
0.0
 20
0.0
 30
0.0
 70
   128
 71
   228
 72
  -173
 73
   289
  0
VERTEX
  8
04ZCOL05-MAIN
  5
76B
 10
0.0
 20
0.0
 30
0.0
 70
   128
 71
   292
 72
  -289
 73
   173
  0
VERTEX
  8
04ZCOL05-MAIN
  5
76C
 10
0.0
 20
0.0
 30
0.0
 70
   128
 71
   170
 72
  -228
 73
   288
  0
VERTEX
  8
04ZCOL05-MAIN
  5
76D
 10
0.0
 20
0.0
 30
0.0
 70
   128
 71
   289
 72
  -288
 73
   228
  0
VERTEX
  8
04ZCOL05-MAIN
  5
76E
 10
0.0
 20
0.0
 30
0.0
 70
   128
 71
   191
 72
  -225
 73
   227
  0
VERTEX
  8
04ZCOL05-MAIN
  5
76F
 10
0.0
 20
0.0
 30
0.0
 70
   128
 71
   287
 72
  -227
 73
   225
  0
VERTEX
  8
04ZCOL05-MAIN
  5
770
 10
0.0
 20
0.0
 30
0.0
 70
   128
 71
   259
 72
  -170
 73
   226
  0
VERTEX
  8
04ZCOL05-MAIN
  5
771
 10
0.0
 20
0.0
 30
0.0
 70
   128
 71
   288
 72
  -226
 73
   170
  0
VERTEX
  8
04ZCOL05-MAIN
  5
772
 10
0.0
 20
0.0
 30
0.0
 70
   128
 71
   225
 72
  -221
 73
   287
  0
VERTEX
  8
04ZCOL05-MAIN
  5
773
 10
0.0
 20
0.0
 30
0.0
 70
   128
 71
   281
 72
  -287
 73
   221
  0
VERTEX
  8
04ZCOL05-MAIN
  5
774
 10
0.0
 20
0.0
 30
0.0
 70
   128
 71
   224
 72
  -168
 73
   223
  0
VERTEX
  8
04ZCOL05-MAIN
  5
775
 10
0.0
 20
0.0
 30
0.0
 70
   128
 71
   286
 72
  -223
 73
   168
  0
VERTEX
  8
04ZCOL05-MAIN
  5
776
 10
0.0
 20
0.0
 30
0.0
 70
   128
 71
   222
 72
  -145
 73
   284
  0
VERTEX
  8
04ZCOL05-MAIN
  5
777
 10
0.0
 20
0.0
 30
0.0
 70
   128
 71
   261
 72
  -284
 73
   145
  0
VERTEX
  8
04ZCOL05-MAIN
  5
778
 10
0.0
 20
0.0
 30
0.0
 70
   128
 71
   166
 72
  -222
 73
   283
  0
VERTEX
  8
04ZCOL05-MAIN
  5
779
 10
0.0
 20
0.0
 30
0.0
 70
   128
 71
   284
 72
  -283
 73
   222
  0
VERTEX
  8
04ZCOL05-MAIN
  5
77A
 10
0.0
 20
0.0
 30
0.0
 70
   128
 71
   221
 72
  -166
 73
   281
  0
VERTEX
  8
04ZCOL05-MAIN
  5
77B
 10
0.0
 20
0.0
 30
0.0
 70
   128
 71
   283
 72
  -281
 73
   166
  0
VERTEX
  8
04ZCOL05-MAIN
  5
77C
 10
0.0
 20
0.0
 30
0.0
 70
   128
 71
   205
 72
  -147
 73
   260
  0
VERTEX
  8
04ZCOL05-MAIN
  5
77D
 10
0.0
 20
0.0
 30
0.0
 70
   128
 71
   206
 72
  -260
 73
   147
  0
VERTEX
  8
04ZCOL05-MAIN
  5
77E
 10
0.0
 20
0.0
 30
0.0
 70
   128
 71
   218
 72
  -220
 73
   219
  0
VERTEX
  8
04ZCOL05-MAIN
  5
77F
 10
0.0
 20
0.0
 30
0.0
 70
   128
 71
   266
 72
  -219
 73
   220
  0
VERTEX
  8
04ZCOL05-MAIN
  5
780
 10
0.0
 20
0.0
 30
0.0
 70
   128
 71
   162
 72
  -218
 73
   277
  0
VERTEX
  8
04ZCOL05-MAIN
  5
781
 10
0.0
 20
0.0
 30
0.0
 70
   128
 71
   219
 72
  -277
 73
   218
  0
VERTEX
  8
04ZCOL05-MAIN
  5
782
 10
0.0
 20
0.0
 30
0.0
 70
   128
 71
   161
 72
  -162
 73
   276
  0
VERTEX
  8
04ZCOL05-MAIN
  5
783
 10
0.0
 20
0.0
 30
0.0
 70
   128
 71
   277
 72
  -276
 73
   162
  0
VERTEX
  8
04ZCOL05-MAIN
  5
784
 10
0.0
 20
0.0
 30
0.0
 70
   128
 71
   160
 72
  -161
 73
   217
  0
VERTEX
  8
04ZCOL05-MAIN
  5
785
 10
0.0
 20
0.0
 30
0.0
 70
   128
 71
   276
 72
  -217
 73
   161
  0
VERTEX
  8
04ZCOL05-MAIN
  5
786
 10
0.0
 20
0.0
 30
0.0
 70
   128
 71
   216
 72
  -160
 73
   275
  0
VERTEX
  8
04ZCOL05-MAIN
  5
787
 10
0.0
 20
0.0
 30
0.0
 70
   128
 71
   217
 72
  -275
 73
   160
  0
VERTEX
  8
04ZCOL05-MAIN
  5
788
 10
0.0
 20
0.0
 30
0.0
 70
   128
 71
   215
 72
  -216
 73
   273
  0
VERTEX
  8
04ZCOL05-MAIN
  5
789
 10
0.0
 20
0.0
 30
0.0
 70
   128
 71
   275
 72
  -273
 73
   216
  0
VERTEX
  8
04ZCOL05-MAIN
  5
78A
 10
0.0
 20
0.0
 30
0.0
 70
   128
 71
   157
 72
  -215
 73
   272
  0
VERTEX
  8
04ZCOL05-MAIN
  5
78B
 10
0.0
 20
0.0
 30
0.0
 70
   128
 71
   273
 72
  -272
 73
   215
  0
VERTEX
  8
04ZCOL05-MAIN
  5
78C
 10
0.0
 20
0.0
 30
0.0
 70
   128
 71
   156
 72
  -157
 73
   263
  0
VERTEX
  8
04ZCOL05-MAIN
  5
78D
 10
0.0
 20
0.0
 30
0.0
 70
   128
 71
   272
 72
  -263
 73
   157
  0
VERTEX
  8
04ZCOL05-MAIN
  5
78E
 10
0.0
 20
0.0
 30
0.0
 70
   128
 71
   214
 72
  -151
 73
   212
  0
VERTEX
  8
04ZCOL05-MAIN
  5
78F
 10
0.0
 20
0.0
 30
0.0
 70
   128
 71
   271
 72
  -212
 73
   151
  0
VERTEX
  8
04ZCOL05-MAIN
  5
790
 10
0.0
 20
0.0
 30
0.0
 70
   128
 71
   213
 72
  -214
 73
   211
  0
VERTEX
  8
04ZCOL05-MAIN
  5
791
 10
0.0
 20
0.0
 30
0.0
 70
   128
 71
   212
 72
  -211
 73
   214
  0
VERTEX
  8
04ZCOL05-MAIN
  5
792
 10
0.0
 20
0.0
 30
0.0
 70
   128
 71
   210
 72
  -148
 73
   270
  0
VERTEX
  8
04ZCOL05-MAIN
  5
793
 10
0.0
 20
0.0
 30
0.0
 70
   128
 71
   269
 72
  -270
 73
   148
  0
VERTEX
  8
04ZCOL05-MAIN
  5
794
 10
0.0
 20
0.0
 30
0.0
 70
   128
 71
   209
 72
  -210
 73
   268
  0
VERTEX
  8
04ZCOL05-MAIN
  5
795
 10
0.0
 20
0.0
 30
0.0
 70
   128
 71
   270
 72
  -268
 73
   210
  0
VERTEX
  8
04ZCOL05-MAIN
  5
796
 10
0.0
 20
0.0
 30
0.0
 70
   128
 71
   208
 72
  -209
 73
   267
  0
VERTEX
  8
04ZCOL05-MAIN
  5
797
 10
0.0
 20
0.0
 30
0.0
 70
   128
 71
   268
 72
  -267
 73
   209
  0
VERTEX
  8
04ZCOL05-MAIN
  5
798
 10
0.0
 20
0.0
 30
0.0
 70
   128
 71
   151
 72
  -208
 73
   271
  0
VERTEX
  8
04ZCOL05-MAIN
  5
799
 10
0.0
 20
0.0
 30
0.0
 70
   128
 71
   267
 72
  -271
 73
   208
  0
VERTEX
  8
04ZCOL05-MAIN
  5
79A
 10
0.0
 20
0.0
 30
0.0
 70
   128
 71
   220
 72
  -213
 73
   266
  0
VERTEX
  8
04ZCOL05-MAIN
  5
79B
 10
0.0
 20
0.0
 30
0.0
 70
   128
 71
   211
 72
  -266
 73
   213
  0
VERTEX
  8
04ZCOL05-MAIN
  5
79C
 10
0.0
 20
0.0
 30
0.0
 70
   128
 71
   148
 72
  -207
 73
   269
  0
VERTEX
  8
04ZCOL05-MAIN
  5
79D
 10
0.0
 20
0.0
 30
0.0
 70
   128
 71
   264
 72
  -269
 73
   207
  0
VERTEX
  8
04ZCOL05-MAIN
  5
79E
 10
0.0
 20
0.0
 30
0.0
 70
   128
 71
   147
 72
  -156
 73
   206
  0
VERTEX
  8
04ZCOL05-MAIN
  5
79F
 10
0.0
 20
0.0
 30
0.0
 70
   128
 71
   263
 72
  -206
 73
   156
  0
VERTEX
  8
04ZCOL05-MAIN
  5
7A0
 10
0.0
 20
0.0
 30
0.0
 70
   128
 71
   145
 72
  -205
 73
   261
  0
VERTEX
  8
04ZCOL05-MAIN
  5
7A1
 10
0.0
 20
0.0
 30
0.0
 70
   128
 71
   260
 72
  -261
 73
   205
  0
VERTEX
  8
04ZCOL05-MAIN
  5
7A2
 10
0.0
 20
0.0
 30
0.0
 70
   128
 71
   143
 72
  -169
 73
   204
  0
VERTEX
  8
04ZCOL05-MAIN
  5
7A3
 10
0.0
 20
0.0
 30
0.0
 70
   128
 71
   224
 72
  -204
 73
   169
  0
VERTEX
  8
04ZCOL05-MAIN
  5
7A4
 10
0.0
 20
0.0
 30
0.0
 70
   128
 71
   142
 72
  -108
 73
   203
  0
VERTEX
  8
04ZCOL05-MAIN
  5
7A5
 10
0.0
 20
0.0
 30
0.0
 70
   128
 71
   259
 72
  -203
 73
   108
  0
VERTEX
  8
04ZCOL05-MAIN
  5
7A6
 10
0.0
 20
0.0
 30
0.0
 70
   128
 71
   141
 72
  -142
 73
   202
  0
VERTEX
  8
04ZCOL05-MAIN
  5
7A7
 10
0.0
 20
0.0
 30
0.0
 70
   128
 71
   203
 72
  -202
 73
   142
  0
VERTEX
  8
04ZCOL05-MAIN
  5
7A8
 10
0.0
 20
0.0
 30
0.0
 70
   128
 71
   140
 72
  -141
 73
   255
  0
VERTEX
  8
04ZCOL05-MAIN
  5
7A9
 10
0.0
 20
0.0
 30
0.0
 70
   128
 71
   202
 72
  -255
 73
   141
  0
VERTEX
  8
04ZCOL05-MAIN
  5
7AA
 10
0.0
 20
0.0
 30
0.0
 70
   128
 71
   199
 72
  -140
 73
   257
  0
VERTEX
  8
04ZCOL05-MAIN
  5
7AB
 10
0.0
 20
0.0
 30
0.0
 70
   128
 71
   255
 72
  -257
 73
   140
  0
VERTEX
  8
04ZCOL05-MAIN
  5
7AC
 10
0.0
 20
0.0
 30
0.0
 70
   128
 71
   201
 72
  -199
 73
   200
  0
VERTEX
  8
04ZCOL05-MAIN
  5
7AD
 10
0.0
 20
0.0
 30
0.0
 70
   128
 71
   257
 72
  -200
 73
   199
  0
VERTEX
  8
04ZCOL05-MAIN
  5
7AE
 10
0.0
 20
0.0
 30
0.0
 70
   128
 71
   137
 72
  -201
 73
   252
  0
VERTEX
  8
04ZCOL05-MAIN
  5
7AF
 10
0.0
 20
0.0
 30
0.0
 70
   128
 71
   200
 72
  -252
 73
   201
  0
VERTEX
  8
04ZCOL05-MAIN
  5
7B0
 10
0.0
 20
0.0
 30
0.0
 70
   128
 71
   135
 72
  -137
 73
   198
  0
VERTEX
  8
04ZCOL05-MAIN
  5
7B1
 10
0.0
 20
0.0
 30
0.0
 70
   128
 71
   252
 72
  -198
 73
   137
  0
VERTEX
  8
04ZCOL05-MAIN
  5
7B2
 10
0.0
 20
0.0
 30
0.0
 70
   128
 71
   136
 72
  -135
 73
   251
  0
VERTEX
  8
04ZCOL05-MAIN
  5
7B3
 10
0.0
 20
0.0
 30
0.0
 70
   128
 71
   198
 72
  -251
 73
   135
  0
VERTEX
  8
04ZCOL05-MAIN
  5
7B4
 10
0.0
 20
0.0
 30
0.0
 70
   128
 71
   197
 72
  -136
 73
   249
  0
VERTEX
  8
04ZCOL05-MAIN
  5
7B5
 10
0.0
 20
0.0
 30
0.0
 70
   128
 71
   251
 72
  -249
 73
   136
  0
VERTEX
  8
04ZCOL05-MAIN
  5
7B6
 10
0.0
 20
0.0
 30
0.0
 70
   128
 71
   195
 72
  -197
 73
   196
  0
VERTEX
  8
04ZCOL05-MAIN
  5
7B7
 10
0.0
 20
0.0
 30
0.0
 70
   128
 71
   249
 72
  -196
 73
   197
  0
VERTEX
  8
04ZCOL05-MAIN
  5
7B8
 10
0.0
 20
0.0
 30
0.0
 70
   128
 71
   134
 72
  -195
 73
   246
  0
VERTEX
  8
04ZCOL05-MAIN
  5
7B9
 10
0.0
 20
0.0
 30
0.0
 70
   128
 71
   196
 72
  -246
 73
   195
  0
VERTEX
  8
04ZCOL05-MAIN
  5
7BA
 10
0.0
 20
0.0
 30
0.0
 70
   128
 71
   194
 72
  -134
 73
   193
  0
VERTEX
  8
04ZCOL05-MAIN
  5
7BB
 10
0.0
 20
0.0
 30
0.0
 70
   128
 71
   246
 72
  -193
 73
   134
  0
VERTEX
  8
04ZCOL05-MAIN
  5
7BC
 10
0.0
 20
0.0
 30
0.0
 70
   128
 71
   132
 72
  -194
 73
   168
  0
VERTEX
  8
04ZCOL05-MAIN
  5
7BD
 10
0.0
 20
0.0
 30
0.0
 70
   128
 71
   193
 72
  -168
 73
   194
  0
VERTEX
  8
04ZCOL05-MAIN
  5
7BE
 10
0.0
 20
0.0
 30
0.0
 70
   128
 71
   130
 72
  -192
 73
   245
  0
VERTEX
  8
04ZCOL05-MAIN
  5
7BF
 10
0.0
 20
0.0
 30
0.0
 70
   128
 71
   191
 72
  -245
 73
   192
  0
VERTEX
  8
04ZCOL05-MAIN
  5
7C0
 10
0.0
 20
0.0
 30
0.0
 70
   128
 71
   188
 72
  -130
 73
   189
  0
VERTEX
  8
04ZCOL05-MAIN
  5
7C1
 10
0.0
 20
0.0
 30
0.0
 70
   128
 71
   245
 72
  -189
 73
   130
  0
VERTEX
  8
04ZCOL05-MAIN
  5
7C2
 10
0.0
 20
0.0
 30
0.0
 70
   128
 71
   187
 72
  -188
 73
   190
  0
VERTEX
  8
04ZCOL05-MAIN
  5
7C3
 10
0.0
 20
0.0
 30
0.0
 70
   128
 71
   189
 72
  -190
 73
   188
  0
VERTEX
  8
04ZCOL05-MAIN
  5
7C4
 10
0.0
 20
0.0
 30
0.0
 70
   128
 71
   127
 72
  -187
 73
   243
  0
VERTEX
  8
04ZCOL05-MAIN
  5
7C5
 10
0.0
 20
0.0
 30
0.0
 70
   128
 71
   190
 72
  -243
 73
   187
  0
VERTEX
  8
04ZCOL05-MAIN
  5
7C6
 10
0.0
 20
0.0
 30
0.0
 70
   128
 71
   126
 72
  -127
 73
   186
  0
VERTEX
  8
04ZCOL05-MAIN
  5
7C7
 10
0.0
 20
0.0
 30
0.0
 70
   128
 71
   243
 72
  -186
 73
   127
  0
VERTEX
  8
04ZCOL05-MAIN
  5
7C8
 10
0.0
 20
0.0
 30
0.0
 70
   128
 71
   125
 72
  -126
 73
   242
  0
VERTEX
  8
04ZCOL05-MAIN
  5
7C9
 10
0.0
 20
0.0
 30
0.0
 70
   128
 71
   186
 72
  -242
 73
   126
  0
VERTEX
  8
04ZCOL05-MAIN
  5
7CA
 10
0.0
 20
0.0
 30
0.0
 70
   128
 71
   122
 72
  -125
 73
   238
  0
VERTEX
  8
04ZCOL05-MAIN
  5
7CB
 10
0.0
 20
0.0
 30
0.0
 70
   128
 71
   242
 72
  -238
 73
   125
  0
VERTEX
  8
04ZCOL05-MAIN
  5
7CC
 10
0.0
 20
0.0
 30
0.0
 70
   128
 71
   121
 72
  -122
 73
   237
  0
VERTEX
  8
04ZCOL05-MAIN
  5
7CD
 10
0.0
 20
0.0
 30
0.0
 70
   128
 71
   238
 72
  -237
 73
   122
  0
VERTEX
  8
04ZCOL05-MAIN
  5
7CE
 10
0.0
 20
0.0
 30
0.0
 70
   128
 71
   185
 72
  -121
 73
   184
  0
VERTEX
  8
04ZCOL05-MAIN
  5
7CF
 10
0.0
 20
0.0
 30
0.0
 70
   128
 71
   237
 72
  -184
 73
   121
  0
VERTEX
  8
04ZCOL05-MAIN
  5
7D0
 10
0.0
 20
0.0
 30
0.0
 70
   128
 71
   119
 72
  -185
 73
   234
  0
VERTEX
  8
04ZCOL05-MAIN
  5
7D1
 10
0.0
 20
0.0
 30
0.0
 70
   128
 71
   184
 72
  -234
 73
   185
  0
VERTEX
  8
04ZCOL05-MAIN
  5
7D2
 10
0.0
 20
0.0
 30
0.0
 70
   128
 71
   182
 72
  -119
 73
   183
  0
VERTEX
  8
04ZCOL05-MAIN
  5
7D3
 10
0.0
 20
0.0
 30
0.0
 70
   128
 71
   234
 72
  -183
 73
   119
  0
VERTEX
  8
04ZCOL05-MAIN
  5
7D4
 10
0.0
 20
0.0
 30
0.0
 70
   128
 71
   180
 72
  -182
 73
   181
  0
VERTEX
  8
04ZCOL05-MAIN
  5
7D5
 10
0.0
 20
0.0
 30
0.0
 70
   128
 71
   183
 72
  -181
 73
   182
  0
VERTEX
  8
04ZCOL05-MAIN
  5
7D6
 10
0.0
 20
0.0
 30
0.0
 70
   128
 71
   116
 72
  -180
 73
   178
  0
VERTEX
  8
04ZCOL05-MAIN
  5
7D7
 10
0.0
 20
0.0
 30
0.0
 70
   128
 71
   181
 72
  -178
 73
   180
  0
VERTEX
  8
04ZCOL05-MAIN
  5
7D8
 10
0.0
 20
0.0
 30
0.0
 70
   128
 71
   177
 72
  -116
 73
   179
  0
VERTEX
  8
04ZCOL05-MAIN
  5
7D9
 10
0.0
 20
0.0
 30
0.0
 70
   128
 71
   178
 72
  -179
 73
   116
  0
VERTEX
  8
04ZCOL05-MAIN
  5
7DA
 10
0.0
 20
0.0
 30
0.0
 70
   128
 71
   175
 72
  -177
 73
   176
  0
VERTEX
  8
04ZCOL05-MAIN
  5
7DB
 10
0.0
 20
0.0
 30
0.0
 70
   128
 71
   179
 72
  -176
 73
   177
  0
VERTEX
  8
04ZCOL05-MAIN
  5
7DC
 10
0.0
 20
0.0
 30
0.0
 70
   128
 71
   113
 72
  -175
 73
   231
  0
VERTEX
  8
04ZCOL05-MAIN
  5
7DD
 10
0.0
 20
0.0
 30
0.0
 70
   128
 71
   176
 72
  -231
 73
   175
  0
VERTEX
  8
04ZCOL05-MAIN
  5
7DE
 10
0.0
 20
0.0
 30
0.0
 70
   128
 71
   111
 72
  -113
 73
   174
  0
VERTEX
  8
04ZCOL05-MAIN
  5
7DF
 10
0.0
 20
0.0
 30
0.0
 70
   128
 71
   231
 72
  -174
 73
   113
  0
VERTEX
  8
04ZCOL05-MAIN
  5
7E0
 10
0.0
 20
0.0
 30
0.0
 70
   128
 71
   110
 72
  -111
 73
   173
  0
VERTEX
  8
04ZCOL05-MAIN
  5
7E1
 10
0.0
 20
0.0
 30
0.0
 70
   128
 71
   174
 72
  -173
 73
   111
  0
VERTEX
  8
04ZCOL05-MAIN
  5
7E2
 10
0.0
 20
0.0
 30
0.0
 70
   128
 71
   172
 72
  -110
 73
   228
  0
VERTEX
  8
04ZCOL05-MAIN
  5
7E3
 10
0.0
 20
0.0
 30
0.0
 70
   128
 71
   173
 72
  -228
 73
   110
  0
VERTEX
  8
04ZCOL05-MAIN
  5
7E4
 10
0.0
 20
0.0
 30
0.0
 70
   128
 71
   171
 72
  -172
 73
   170
  0
VERTEX
  8
04ZCOL05-MAIN
  5
7E5
 10
0.0
 20
0.0
 30
0.0
 70
   128
 71
   228
 72
  -170
 73
   172
  0
VERTEX
  8
04ZCOL05-MAIN
  5
7E6
 10
0.0
 20
0.0
 30
0.0
 70
   128
 71
   192
 72
  -107
 73
   191
  0
VERTEX
  8
04ZCOL05-MAIN
  5
7E7
 10
0.0
 20
0.0
 30
0.0
 70
   128
 71
   225
 72
  -191
 73
   107
  0
VERTEX
  8
04ZCOL05-MAIN
  5
7E8
 10
0.0
 20
0.0
 30
0.0
 70
   128
 71
   108
 72
  -171
 73
   259
  0
VERTEX
  8
04ZCOL05-MAIN
  5
7E9
 10
0.0
 20
0.0
 30
0.0
 70
   128
 71
   170
 72
  -259
 73
   171
  0
VERTEX
  8
04ZCOL05-MAIN
  5
7EA
 10
0.0
 20
0.0
 30
0.0
 70
   128
 71
   107
 72
  -165
 73
   225
  0
VERTEX
  8
04ZCOL05-MAIN
  5
7EB
 10
0.0
 20
0.0
 30
0.0
 70
   128
 71
   221
 72
  -225
 73
   165
  0
VERTEX
  8
04ZCOL05-MAIN
  5
7EC
 10
0.0
 20
0.0
 30
0.0
 70
   128
 71
   169
 72
  -132
 73
   224
  0
VERTEX
  8
04ZCOL05-MAIN
  5
7ED
 10
0.0
 20
0.0
 30
0.0
 70
   128
 71
   168
 72
  -224
 73
   132
  0
VERTEX
  8
04ZCOL05-MAIN
  5
7EE
 10
0.0
 20
0.0
 30
0.0
 70
   128
 71
   167
 72
  -146
 73
   222
  0
VERTEX
  8
04ZCOL05-MAIN
  5
7EF
 10
0.0
 20
0.0
 30
0.0
 70
   128
 71
   145
 72
  -222
 73
   146
  0
VERTEX
  8
04ZCOL05-MAIN
  5
7F0
 10
0.0
 20
0.0
 30
0.0
 70
   128
 71
   164
 72
  -167
 73
   166
  0
VERTEX
  8
04ZCOL05-MAIN
  5
7F1
 10
0.0
 20
0.0
 30
0.0
 70
   128
 71
   222
 72
  -166
 73
   167
  0
VERTEX
  8
04ZCOL05-MAIN
  5
7F2
 10
0.0
 20
0.0
 30
0.0
 70
   128
 71
   165
 72
  -164
 73
   221
  0
VERTEX
  8
04ZCOL05-MAIN
  5
7F3
 10
0.0
 20
0.0
 30
0.0
 70
   128
 71
   166
 72
  -221
 73
   164
  0
VERTEX
  8
04ZCOL05-MAIN
  5
7F4
 10
0.0
 20
0.0
 30
0.0
 70
   128
 71
   103
 72
  -104
 73
   205
  0
VERTEX
  8
04ZCOL05-MAIN
  5
7F5
 10
0.0
 20
0.0
 30
0.0
 70
   128
 71
   147
 72
  -205
 73
   104
  0
VERTEX
  8
04ZCOL05-MAIN
  5
7F6
 10
0.0
 20
0.0
 30
0.0
 70
   128
 71
   102
 72
  -163
 73
   218
  0
VERTEX
  8
04ZCOL05-MAIN
  5
7F7
 10
0.0
 20
0.0
 30
0.0
 70
   128
 71
   220
 72
  -218
 73
   163
  0
VERTEX
  8
04ZCOL05-MAIN
  5
7F8
 10
0.0
 20
0.0
 30
0.0
 70
   128
 71
   100
 72
  -102
 73
   162
  0
VERTEX
  8
04ZCOL05-MAIN
  5
7F9
 10
0.0
 20
0.0
 30
0.0
 70
   128
 71
   218
 72
  -162
 73
   102
  0
VERTEX
  8
04ZCOL05-MAIN
  5
7FA
 10
0.0
 20
0.0
 30
0.0
 70
   128
 71
    98
 72
  -100
 73
   161
  0
VERTEX
  8
04ZCOL05-MAIN
  5
7FB
 10
0.0
 20
0.0
 30
0.0
 70
   128
 71
   162
 72
  -161
 73
   100
  0
VERTEX
  8
04ZCOL05-MAIN
  5
7FC
 10
0.0
 20
0.0
 30
0.0
 70
   128
 71
   159
 72
   -98
 73
   160
  0
VERTEX
  8
04ZCOL05-MAIN
  5
7FD
 10
0.0
 20
0.0
 30
0.0
 70
   128
 71
   161
 72
  -160
 73
    98
  0
VERTEX
  8
04ZCOL05-MAIN
  5
7FE
 10
0.0
 20
0.0
 30
0.0
 70
   128
 71
    95
 72
  -159
 73
   216
  0
VERTEX
  8
04ZCOL05-MAIN
  5
7FF
 10
0.0
 20
0.0
 30
0.0
 70
   128
 71
   160
 72
  -216
 73
   159
  0
VERTEX
  8
04ZCOL05-MAIN
  5
800
 10
0.0
 20
0.0
 30
0.0
 70
   128
 71
   158
 72
   -95
 73
   215
  0
VERTEX
  8
04ZCOL05-MAIN
  5
801
 10
0.0
 20
0.0
 30
0.0
 70
   128
 71
   216
 72
  -215
 73
    95
  0
VERTEX
  8
04ZCOL05-MAIN
  5
802
 10
0.0
 20
0.0
 30
0.0
 70
   128
 71
    94
 72
  -158
 73
   157
  0
VERTEX
  8
04ZCOL05-MAIN
  5
803
 10
0.0
 20
0.0
 30
0.0
 70
   128
 71
   215
 72
  -157
 73
   158
  0
VERTEX
  8
04ZCOL05-MAIN
  5
804
 10
0.0
 20
0.0
 30
0.0
 70
   128
 71
    84
 72
   -94
 73
   156
  0
VERTEX
  8
04ZCOL05-MAIN
  5
805
 10
0.0
 20
0.0
 30
0.0
 70
   128
 71
   157
 72
  -156
 73
    94
  0
VERTEX
  8
04ZCOL05-MAIN
  5
806
 10
0.0
 20
0.0
 30
0.0
 70
   128
 71
   155
 72
   -87
 73
   214
  0
VERTEX
  8
04ZCOL05-MAIN
  5
807
 10
0.0
 20
0.0
 30
0.0
 70
   128
 71
   151
 72
  -214
 73
    87
  0
VERTEX
  8
04ZCOL05-MAIN
  5
808
 10
0.0
 20
0.0
 30
0.0
 70
   128
 71
    86
 72
  -155
 73
   213
  0
VERTEX
  8
04ZCOL05-MAIN
  5
809
 10
0.0
 20
0.0
 30
0.0
 70
   128
 71
   214
 72
  -213
 73
   155
  0
VERTEX
  8
04ZCOL05-MAIN
  5
80A
 10
0.0
 20
0.0
 30
0.0
 70
   128
 71
   154
 72
  -150
 73
   210
  0
VERTEX
  8
04ZCOL05-MAIN
  5
80B
 10
0.0
 20
0.0
 30
0.0
 70
   128
 71
   148
 72
  -210
 73
   150
  0
VERTEX
  8
04ZCOL05-MAIN
  5
80C
 10
0.0
 20
0.0
 30
0.0
 70
   128
 71
   153
 72
  -154
 73
   209
  0
VERTEX
  8
04ZCOL05-MAIN
  5
80D
 10
0.0
 20
0.0
 30
0.0
 70
   128
 71
   210
 72
  -209
 73
   154
  0
VERTEX
  8
04ZCOL05-MAIN
  5
80E
 10
0.0
 20
0.0
 30
0.0
 70
   128
 71
   152
 72
  -153
 73
   208
  0
VERTEX
  8
04ZCOL05-MAIN
  5
80F
 10
0.0
 20
0.0
 30
0.0
 70
   128
 71
   209
 72
  -208
 73
   153
  0
VERTEX
  8
04ZCOL05-MAIN
  5
810
 10
0.0
 20
0.0
 30
0.0
 70
   128
 71
    87
 72
  -152
 73
   151
  0
VERTEX
  8
04ZCOL05-MAIN
  5
811
 10
0.0
 20
0.0
 30
0.0
 70
   128
 71
   208
 72
  -151
 73
   152
  0
VERTEX
  8
04ZCOL05-MAIN
  5
812
 10
0.0
 20
0.0
 30
0.0
 70
   128
 71
   163
 72
   -86
 73
   220
  0
VERTEX
  8
04ZCOL05-MAIN
  5
813
 10
0.0
 20
0.0
 30
0.0
 70
   128
 71
   213
 72
  -220
 73
    86
  0
VERTEX
  8
04ZCOL05-MAIN
  5
814
 10
0.0
 20
0.0
 30
0.0
 70
   128
 71
   150
 72
  -149
 73
   148
  0
VERTEX
  8
04ZCOL05-MAIN
  5
815
 10
0.0
 20
0.0
 30
0.0
 70
   128
 71
   207
 72
  -148
 73
   149
  0
VERTEX
  8
04ZCOL05-MAIN
  5
816
 10
0.0
 20
0.0
 30
0.0
 70
   128
 71
   104
 72
   -84
 73
   147
  0
VERTEX
  8
04ZCOL05-MAIN
  5
817
 10
0.0
 20
0.0
 30
0.0
 70
   128
 71
   156
 72
  -147
 73
    84
  0
VERTEX
  8
04ZCOL05-MAIN
  5
818
 10
0.0
 20
0.0
 30
0.0
 70
   128
 71
   146
 72
  -103
 73
   145
  0
VERTEX
  8
04ZCOL05-MAIN
  5
819
 10
0.0
 20
0.0
 30
0.0
 70
   128
 71
   205
 72
  -145
 73
   103
  0
VERTEX
  8
04ZCOL05-MAIN
  5
81A
 10
0.0
 20
0.0
 30
0.0
 70
   128
 71
    82
 72
  -144
 73
   143
  0
VERTEX
  8
04ZCOL05-MAIN
  5
81B
 10
0.0
 20
0.0
 30
0.0
 70
   128
 71
   169
 72
  -143
 73
   144
  0
VERTEX
  8
04ZCOL05-MAIN
  5
81C
 10
0.0
 20
0.0
 30
0.0
 70
   128
 71
    81
 72
   -50
 73
   142
  0
VERTEX
  8
04ZCOL05-MAIN
  5
81D
 10
0.0
 20
0.0
 30
0.0
 70
   128
 71
   108
 72
  -142
 73
    50
  0
VERTEX
  8
04ZCOL05-MAIN
  5
81E
 10
0.0
 20
0.0
 30
0.0
 70
   128
 71
    80
 72
   -81
 73
   141
  0
VERTEX
  8
04ZCOL05-MAIN
  5
81F
 10
0.0
 20
0.0
 30
0.0
 70
   128
 71
   142
 72
  -141
 73
    81
  0
VERTEX
  8
04ZCOL05-MAIN
  5
820
 10
0.0
 20
0.0
 30
0.0
 70
   128
 71
    78
 72
   -80
 73
   140
  0
VERTEX
  8
04ZCOL05-MAIN
  5
821
 10
0.0
 20
0.0
 30
0.0
 70
   128
 71
   141
 72
  -140
 73
    80
  0
VERTEX
  8
04ZCOL05-MAIN
  5
822
 10
0.0
 20
0.0
 30
0.0
 70
   128
 71
   138
 72
   -78
 73
   199
  0
VERTEX
  8
04ZCOL05-MAIN
  5
823
 10
0.0
 20
0.0
 30
0.0
 70
   128
 71
   140
 72
  -199
 73
    78
  0
VERTEX
  8
04ZCOL05-MAIN
  5
824
 10
0.0
 20
0.0
 30
0.0
 70
   128
 71
   139
 72
  -138
 73
   201
  0
VERTEX
  8
04ZCOL05-MAIN
  5
825
 10
0.0
 20
0.0
 30
0.0
 70
   128
 71
   199
 72
  -201
 73
   138
  0
VERTEX
  8
04ZCOL05-MAIN
  5
826
 10
0.0
 20
0.0
 30
0.0
 70
   128
 71
    76
 72
  -139
 73
   137
  0
VERTEX
  8
04ZCOL05-MAIN
  5
827
 10
0.0
 20
0.0
 30
0.0
 70
   128
 71
   201
 72
  -137
 73
   139
  0
VERTEX
  8
04ZCOL05-MAIN
  5
828
 10
0.0
 20
0.0
 30
0.0
 70
   128
 71
    75
 72
   -76
 73
   135
  0
VERTEX
  8
04ZCOL05-MAIN
  5
829
 10
0.0
 20
0.0
 30
0.0
 70
   128
 71
   137
 72
  -135
 73
    76
  0
VERTEX
  8
04ZCOL05-MAIN
  5
82A
 10
0.0
 20
0.0
 30
0.0
 70
   128
 71
    74
 72
   -75
 73
   136
  0
VERTEX
  8
04ZCOL05-MAIN
  5
82B
 10
0.0
 20
0.0
 30
0.0
 70
   128
 71
   135
 72
  -136
 73
    75
  0
VERTEX
  8
04ZCOL05-MAIN
  5
82C
 10
0.0
 20
0.0
 30
0.0
 70
   128
 71
    73
 72
   -74
 73
   197
  0
VERTEX
  8
04ZCOL05-MAIN
  5
82D
 10
0.0
 20
0.0
 30
0.0
 70
   128
 71
   136
 72
  -197
 73
    74
  0
VERTEX
  8
04ZCOL05-MAIN
  5
82E
 10
0.0
 20
0.0
 30
0.0
 70
   128
 71
   133
 72
   -73
 73
   195
  0
VERTEX
  8
04ZCOL05-MAIN
  5
82F
 10
0.0
 20
0.0
 30
0.0
 70
   128
 71
   197
 72
  -195
 73
    73
  0
VERTEX
  8
04ZCOL05-MAIN
  5
830
 10
0.0
 20
0.0
 30
0.0
 70
   128
 71
    69
 72
  -133
 73
   134
  0
VERTEX
  8
04ZCOL05-MAIN
  5
831
 10
0.0
 20
0.0
 30
0.0
 70
   128
 71
   195
 72
  -134
 73
   133
  0
VERTEX
  8
04ZCOL05-MAIN
  5
832
 10
0.0
 20
0.0
 30
0.0
 70
   128
 71
    68
 72
   -69
 73
   194
  0
VERTEX
  8
04ZCOL05-MAIN
  5
833
 10
0.0
 20
0.0
 30
0.0
 70
   128
 71
   134
 72
  -194
 73
    69
  0
VERTEX
  8
04ZCOL05-MAIN
  5
834
 10
0.0
 20
0.0
 30
0.0
 70
   128
 71
   106
 72
   -68
 73
   132
  0
VERTEX
  8
04ZCOL05-MAIN
  5
835
 10
0.0
 20
0.0
 30
0.0
 70
   128
 71
   194
 72
  -132
 73
    68
  0
VERTEX
  8
04ZCOL05-MAIN
  5
836
 10
0.0
 20
0.0
 30
0.0
 70
   128
 71
    67
 72
  -131
 73
   130
  0
VERTEX
  8
04ZCOL05-MAIN
  5
837
 10
0.0
 20
0.0
 30
0.0
 70
   128
 71
   192
 72
  -130
 73
   131
  0
VERTEX
  8
04ZCOL05-MAIN
  5
838
 10
0.0
 20
0.0
 30
0.0
 70
   128
 71
   129
 72
   -67
 73
   188
  0
VERTEX
  8
04ZCOL05-MAIN
  5
839
 10
0.0
 20
0.0
 30
0.0
 70
   128
 71
   130
 72
  -188
 73
    67
  0
VERTEX
  8
04ZCOL05-MAIN
  5
83A
 10
0.0
 20
0.0
 30
0.0
 70
   128
 71
    66
 72
  -129
 73
   187
  0
VERTEX
  8
04ZCOL05-MAIN
  5
83B
 10
0.0
 20
0.0
 30
0.0
 70
   128
 71
   188
 72
  -187
 73
   129
  0
VERTEX
  8
04ZCOL05-MAIN
  5
83C
 10
0.0
 20
0.0
 30
0.0
 70
   128
 71
   128
 72
   -66
 73
   127
  0
VERTEX
  8
04ZCOL05-MAIN
  5
83D
 10
0.0
 20
0.0
 30
0.0
 70
   128
 71
   187
 72
  -127
 73
    66
  0
VERTEX
  8
04ZCOL05-MAIN
  5
83E
 10
0.0
 20
0.0
 30
0.0
 70
   128
 71
   124
 72
  -128
 73
   126
  0
VERTEX
  8
04ZCOL05-MAIN
  5
83F
 10
0.0
 20
0.0
 30
0.0
 70
   128
 71
   127
 72
  -126
 73
   128
  0
VERTEX
  8
04ZCOL05-MAIN
  5
840
 10
0.0
 20
0.0
 30
0.0
 70
   128
 71
   123
 72
  -124
 73
   125
  0
VERTEX
  8
04ZCOL05-MAIN
  5
841
 10
0.0
 20
0.0
 30
0.0
 70
   128
 71
   126
 72
  -125
 73
   124
  0
VERTEX
  8
04ZCOL05-MAIN
  5
842
 10
0.0
 20
0.0
 30
0.0
 70
   128
 71
    64
 72
  -123
 73
   122
  0
VERTEX
  8
04ZCOL05-MAIN
  5
843
 10
0.0
 20
0.0
 30
0.0
 70
   128
 71
   125
 72
  -122
 73
   123
  0
VERTEX
  8
04ZCOL05-MAIN
  5
844
 10
0.0
 20
0.0
 30
0.0
 70
   128
 71
    63
 72
   -64
 73
   121
  0
VERTEX
  8
04ZCOL05-MAIN
  5
845
 10
0.0
 20
0.0
 30
0.0
 70
   128
 71
   122
 72
  -121
 73
    64
  0
VERTEX
  8
04ZCOL05-MAIN
  5
846
 10
0.0
 20
0.0
 30
0.0
 70
   128
 71
    61
 72
   -63
 73
   185
  0
VERTEX
  8
04ZCOL05-MAIN
  5
847
 10
0.0
 20
0.0
 30
0.0
 70
   128
 71
   121
 72
  -185
 73
    63
  0
VERTEX
  8
04ZCOL05-MAIN
  5
848
 10
0.0
 20
0.0
 30
0.0
 70
   128
 71
   120
 72
   -61
 73
   119
  0
VERTEX
  8
04ZCOL05-MAIN
  5
849
 10
0.0
 20
0.0
 30
0.0
 70
   128
 71
   185
 72
  -119
 73
    61
  0
VERTEX
  8
04ZCOL05-MAIN
  5
84A
 10
0.0
 20
0.0
 30
0.0
 70
   128
 71
    60
 72
  -120
 73
   182
  0
VERTEX
  8
04ZCOL05-MAIN
  5
84B
 10
0.0
 20
0.0
 30
0.0
 70
   128
 71
   119
 72
  -182
 73
   120
  0
VERTEX
  8
04ZCOL05-MAIN
  5
84C
 10
0.0
 20
0.0
 30
0.0
 70
   128
 71
   117
 72
   -60
 73
   180
  0
VERTEX
  8
04ZCOL05-MAIN
  5
84D
 10
0.0
 20
0.0
 30
0.0
 70
   128
 71
   182
 72
  -180
 73
    60
  0
VERTEX
  8
04ZCOL05-MAIN
  5
84E
 10
0.0
 20
0.0
 30
0.0
 70
   128
 71
   118
 72
  -117
 73
   116
  0
VERTEX
  8
04ZCOL05-MAIN
  5
84F
 10
0.0
 20
0.0
 30
0.0
 70
   128
 71
   180
 72
  -116
 73
   117
  0
VERTEX
  8
04ZCOL05-MAIN
  5
850
 10
0.0
 20
0.0
 30
0.0
 70
   128
 71
   115
 72
  -118
 73
   177
  0
VERTEX
  8
04ZCOL05-MAIN
  5
851
 10
0.0
 20
0.0
 30
0.0
 70
   128
 71
   116
 72
  -177
 73
   118
  0
VERTEX
  8
04ZCOL05-MAIN
  5
852
 10
0.0
 20
0.0
 30
0.0
 70
   128
 71
   114
 72
  -115
 73
   175
  0
VERTEX
  8
04ZCOL05-MAIN
  5
853
 10
0.0
 20
0.0
 30
0.0
 70
   128
 71
   177
 72
  -175
 73
   115
  0
VERTEX
  8
04ZCOL05-MAIN
  5
854
 10
0.0
 20
0.0
 30
0.0
 70
   128
 71
   112
 72
  -114
 73
   113
  0
VERTEX
  8
04ZCOL05-MAIN
  5
855
 10
0.0
 20
0.0
 30
0.0
 70
   128
 71
   175
 72
  -113
 73
   114
  0
VERTEX
  8
04ZCOL05-MAIN
  5
856
 10
0.0
 20
0.0
 30
0.0
 70
   128
 71
    54
 72
  -112
 73
   111
  0
VERTEX
  8
04ZCOL05-MAIN
  5
857
 10
0.0
 20
0.0
 30
0.0
 70
   128
 71
   113
 72
  -111
 73
   112
  0
VERTEX
  8
04ZCOL05-MAIN
  5
858
 10
0.0
 20
0.0
 30
0.0
 70
   128
 71
    53
 72
   -54
 73
   110
  0
VERTEX
  8
04ZCOL05-MAIN
  5
859
 10
0.0
 20
0.0
 30
0.0
 70
   128
 71
   111
 72
  -110
 73
    54
  0
VERTEX
  8
04ZCOL05-MAIN
  5
85A
 10
0.0
 20
0.0
 30
0.0
 70
   128
 71
   109
 72
   -53
 73
   172
  0
VERTEX
  8
04ZCOL05-MAIN
  5
85B
 10
0.0
 20
0.0
 30
0.0
 70
   128
 71
   110
 72
  -172
 73
    53
  0
VERTEX
  8
04ZCOL05-MAIN
  5
85C
 10
0.0
 20
0.0
 30
0.0
 70
   128
 71
    49
 72
  -109
 73
   171
  0
VERTEX
  8
04ZCOL05-MAIN
  5
85D
 10
0.0
 20
0.0
 30
0.0
 70
   128
 71
   172
 72
  -171
 73
   109
  0
VERTEX
  8
04ZCOL05-MAIN
  5
85E
 10
0.0
 20
0.0
 30
0.0
 70
   128
 71
   131
 72
   -47
 73
   192
  0
VERTEX
  8
04ZCOL05-MAIN
  5
85F
 10
0.0
 20
0.0
 30
0.0
 70
   128
 71
   107
 72
  -192
 73
    47
  0
VERTEX
  8
04ZCOL05-MAIN
  5
860
 10
0.0
 20
0.0
 30
0.0
 70
   128
 71
    50
 72
   -49
 73
   108
  0
VERTEX
  8
04ZCOL05-MAIN
  5
861
 10
0.0
 20
0.0
 30
0.0
 70
   128
 71
   171
 72
  -108
 73
    49
  0
VERTEX
  8
04ZCOL05-MAIN
  5
862
 10
0.0
 20
0.0
 30
0.0
 70
   128
 71
    47
 72
   -41
 73
   107
  0
VERTEX
  8
04ZCOL05-MAIN
  5
863
 10
0.0
 20
0.0
 30
0.0
 70
   128
 71
   165
 72
  -107
 73
    41
  0
VERTEX
  8
04ZCOL05-MAIN
  5
864
 10
0.0
 20
0.0
 30
0.0
 70
   128
 71
   144
 72
  -106
 73
   169
  0
VERTEX
  8
04ZCOL05-MAIN
  5
865
 10
0.0
 20
0.0
 30
0.0
 70
   128
 71
   132
 72
  -169
 73
   106
  0
VERTEX
  8
04ZCOL05-MAIN
  5
866
 10
0.0
 20
0.0
 30
0.0
 70
   128
 71
    45
 72
   -83
 73
   167
  0
VERTEX
  8
04ZCOL05-MAIN
  5
867
 10
0.0
 20
0.0
 30
0.0
 70
   128
 71
   146
 72
  -167
 73
    83
  0
VERTEX
  8
04ZCOL05-MAIN
  5
868
 10
0.0
 20
0.0
 30
0.0
 70
   128
 71
    43
 72
   -45
 73
   164
  0
VERTEX
  8
04ZCOL05-MAIN
  5
869
 10
0.0
 20
0.0
 30
0.0
 70
   128
 71
   167
 72
  -164
 73
    45
  0
VERTEX
  8
04ZCOL05-MAIN
  5
86A
 10
0.0
 20
0.0
 30
0.0
 70
   128
 71
    41
 72
   -43
 73
   165
  0
VERTEX
  8
04ZCOL05-MAIN
  5
86B
 10
0.0
 20
0.0
 30
0.0
 70
   128
 71
   164
 72
  -165
 73
    43
  0
VERTEX
  8
04ZCOL05-MAIN
  5
86C
 10
0.0
 20
0.0
 30
0.0
 70
   128
 71
    21
 72
  -105
 73
   103
  0
VERTEX
  8
04ZCOL05-MAIN
  5
86D
 10
0.0
 20
0.0
 30
0.0
 70
   128
 71
   104
 72
  -103
 73
   105
  0
VERTEX
  8
04ZCOL05-MAIN
  5
86E
 10
0.0
 20
0.0
 30
0.0
 70
   128
 71
    99
 72
   -39
 73
   102
  0
VERTEX
  8
04ZCOL05-MAIN
  5
86F
 10
0.0
 20
0.0
 30
0.0
 70
   128
 71
   163
 72
  -102
 73
    39
  0
VERTEX
  8
04ZCOL05-MAIN
  5
870
 10
0.0
 20
0.0
 30
0.0
 70
   128
 71
   101
 72
   -99
 73
   100
  0
VERTEX
  8
04ZCOL05-MAIN
  5
871
 10
0.0
 20
0.0
 30
0.0
 70
   128
 71
   102
 72
  -100
 73
    99
  0
VERTEX
  8
04ZCOL05-MAIN
  5
872
 10
0.0
 20
0.0
 30
0.0
 70
   128
 71
    97
 72
  -101
 73
    98
  0
VERTEX
  8
04ZCOL05-MAIN
  5
873
 10
0.0
 20
0.0
 30
0.0
 70
   128
 71
   100
 72
   -98
 73
   101
  0
VERTEX
  8
04ZCOL05-MAIN
  5
874
 10
0.0
 20
0.0
 30
0.0
 70
   128
 71
    35
 72
   -97
 73
   159
  0
VERTEX
  8
04ZCOL05-MAIN
  5
875
 10
0.0
 20
0.0
 30
0.0
 70
   128
 71
    98
 72
  -159
 73
    97
  0
VERTEX
  8
04ZCOL05-MAIN
  5
876
 10
0.0
 20
0.0
 30
0.0
 70
   128
 71
    96
 72
   -35
 73
    95
  0
VERTEX
  8
04ZCOL05-MAIN
  5
877
 10
0.0
 20
0.0
 30
0.0
 70
   128
 71
   159
 72
   -95
 73
    35
  0
VERTEX
  8
04ZCOL05-MAIN
  5
878
 10
0.0
 20
0.0
 30
0.0
 70
   128
 71
    93
 72
   -96
 73
   158
  0
VERTEX
  8
04ZCOL05-MAIN
  5
879
 10
0.0
 20
0.0
 30
0.0
 70
   128
 71
    95
 72
  -158
 73
    96
  0
VERTEX
  8
04ZCOL05-MAIN
  5
87A
 10
0.0
 20
0.0
 30
0.0
 70
   128
 71
    91
 72
   -93
 73
    94
  0
VERTEX
  8
04ZCOL05-MAIN
  5
87B
 10
0.0
 20
0.0
 30
0.0
 70
   128
 71
   158
 72
   -94
 73
    93
  0
VERTEX
  8
04ZCOL05-MAIN
  5
87C
 10
0.0
 20
0.0
 30
0.0
 70
   128
 71
    92
 72
   -91
 73
    84
  0
VERTEX
  8
04ZCOL05-MAIN
  5
87D
 10
0.0
 20
0.0
 30
0.0
 70
   128
 71
    94
 72
   -84
 73
    91
  0
VERTEX
  8
04ZCOL05-MAIN
  5
87E
 10
0.0
 20
0.0
 30
0.0
 70
   128
 71
    89
 72
   -90
 73
   155
  0
VERTEX
  8
04ZCOL05-MAIN
  5
87F
 10
0.0
 20
0.0
 30
0.0
 70
   128
 71
    87
 72
  -155
 73
    90
  0
VERTEX
  8
04ZCOL05-MAIN
  5
880
 10
0.0
 20
0.0
 30
0.0
 70
   128
 71
    31
 72
   -89
 73
    86
  0
VERTEX
  8
04ZCOL05-MAIN
  5
881
 10
0.0
 20
0.0
 30
0.0
 70
   128
 71
   155
 72
   -86
 73
    89
  0
VERTEX
  8
04ZCOL05-MAIN
  5
882
 10
0.0
 20
0.0
 30
0.0
 70
   128
 71
    30
 72
   -85
 73
   154
  0
VERTEX
  8
04ZCOL05-MAIN
  5
883
 10
0.0
 20
0.0
 30
0.0
 70
   128
 71
   150
 72
  -154
 73
    85
  0
VERTEX
  8
04ZCOL05-MAIN
  5
884
 10
0.0
 20
0.0
 30
0.0
 70
   128
 71
    88
 72
   -30
 73
   153
  0
VERTEX
  8
04ZCOL05-MAIN
  5
885
 10
0.0
 20
0.0
 30
0.0
 70
   128
 71
   154
 72
  -153
 73
    30
  0
VERTEX
  8
04ZCOL05-MAIN
  5
886
 10
0.0
 20
0.0
 30
0.0
 70
   128
 71
    28
 72
   -88
 73
   152
  0
VERTEX
  8
04ZCOL05-MAIN
  5
887
 10
0.0
 20
0.0
 30
0.0
 70
   128
 71
   153
 72
  -152
 73
    88
  0
VERTEX
  8
04ZCOL05-MAIN
  5
888
 10
0.0
 20
0.0
 30
0.0
 70
   128
 71
    90
 72
   -28
 73
    87
  0
VERTEX
  8
04ZCOL05-MAIN
  5
889
 10
0.0
 20
0.0
 30
0.0
 70
   128
 71
   152
 72
   -87
 73
    28
  0
VERTEX
  8
04ZCOL05-MAIN
  5
88A
 10
0.0
 20
0.0
 30
0.0
 70
   128
 71
    39
 72
   -31
 73
   163
  0
VERTEX
  8
04ZCOL05-MAIN
  5
88B
 10
0.0
 20
0.0
 30
0.0
 70
   128
 71
    86
 72
  -163
 73
    31
  0
VERTEX
  8
04ZCOL05-MAIN
  5
88C
 10
0.0
 20
0.0
 30
0.0
 70
   128
 71
    85
 72
   -24
 73
   150
  0
VERTEX
  8
04ZCOL05-MAIN
  5
88D
 10
0.0
 20
0.0
 30
0.0
 70
   128
 71
   149
 72
  -150
 73
    24
  0
VERTEX
  8
04ZCOL05-MAIN
  5
88E
 10
0.0
 20
0.0
 30
0.0
 70
   128
 71
   105
 72
   -92
 73
   104
  0
VERTEX
  8
04ZCOL05-MAIN
  5
88F
 10
0.0
 20
0.0
 30
0.0
 70
   128
 71
    84
 72
  -104
 73
    92
  0
VERTEX
  8
04ZCOL05-MAIN
  5
890
 10
0.0
 20
0.0
 30
0.0
 70
   128
 71
    83
 72
   -21
 73
   146
  0
VERTEX
  8
04ZCOL05-MAIN
  5
891
 10
0.0
 20
0.0
 30
0.0
 70
   128
 71
   103
 72
  -146
 73
    21
  0
VERTEX
  8
04ZCOL05-MAIN
  5
892
 10
0.0
 20
0.0
 30
0.0
 70
   128
 71
   752
 72
  -707
 73
    82
  0
VERTEX
  8
04ZCOL05-MAIN
  5
893
 10
0.0
 20
0.0
 30
0.0
 70
   128
 71
   144
 72
   -82
 73
   707
  0
VERTEX
  8
04ZCOL05-MAIN
  5
894
 10
0.0
 20
0.0
 30
0.0
 70
   128
 71
   750
 72
   -51
 73
    81
  0
VERTEX
  8
04ZCOL05-MAIN
  5
895
 10
0.0
 20
0.0
 30
0.0
 70
   128
 71
    50
 72
   -81
 73
    51
  0
VERTEX
  8
04ZCOL05-MAIN
  5
896
 10
0.0
 20
0.0
 30
0.0
 70
   128
 71
    79
 72
  -750
 73
    80
  0
VERTEX
  8
04ZCOL05-MAIN
  5
897
 10
0.0
 20
0.0
 30
0.0
 70
   128
 71
    81
 72
   -80
 73
   750
  0
VERTEX
  8
04ZCOL05-MAIN
  5
898
 10
0.0
 20
0.0
 30
0.0
 70
   128
 71
   748
 72
   -79
 73
    78
  0
VERTEX
  8
04ZCOL05-MAIN
  5
899
 10
0.0
 20
0.0
 30
0.0
 70
   128
 71
    80
 72
   -78
 73
    79
  0
VERTEX
  8
04ZCOL05-MAIN
  5
89A
 10
0.0
 20
0.0
 30
0.0
 70
   128
 71
   749
 72
  -748
 73
   138
  0
VERTEX
  8
04ZCOL05-MAIN
  5
89B
 10
0.0
 20
0.0
 30
0.0
 70
   128
 71
    78
 72
  -138
 73
   748
  0
VERTEX
  8
04ZCOL05-MAIN
  5
89C
 10
0.0
 20
0.0
 30
0.0
 70
   128
 71
    77
 72
  -749
 73
   139
  0
VERTEX
  8
04ZCOL05-MAIN
  5
89D
 10
0.0
 20
0.0
 30
0.0
 70
   128
 71
   138
 72
  -139
 73
   749
  0
VERTEX
  8
04ZCOL05-MAIN
  5
89E
 10
0.0
 20
0.0
 30
0.0
 70
   128
 71
   746
 72
   -77
 73
    76
  0
VERTEX
  8
04ZCOL05-MAIN
  5
89F
 10
0.0
 20
0.0
 30
0.0
 70
   128
 71
   139
 72
   -76
 73
    77
  0
VERTEX
  8
04ZCOL05-MAIN
  5
8A0
 10
0.0
 20
0.0
 30
0.0
 70
   128
 71
   744
 72
  -746
 73
    75
  0
VERTEX
  8
04ZCOL05-MAIN
  5
8A1
 10
0.0
 20
0.0
 30
0.0
 70
   128
 71
    76
 72
   -75
 73
   746
  0
VERTEX
  8
04ZCOL05-MAIN
  5
8A2
 10
0.0
 20
0.0
 30
0.0
 70
   128
 71
    72
 72
  -744
 73
    74
  0
VERTEX
  8
04ZCOL05-MAIN
  5
8A3
 10
0.0
 20
0.0
 30
0.0
 70
   128
 71
    75
 72
   -74
 73
   744
  0
VERTEX
  8
04ZCOL05-MAIN
  5
8A4
 10
0.0
 20
0.0
 30
0.0
 70
   128
 71
    70
 72
   -72
 73
    73
  0
VERTEX
  8
04ZCOL05-MAIN
  5
8A5
 10
0.0
 20
0.0
 30
0.0
 70
   128
 71
    74
 72
   -73
 73
    72
  0
VERTEX
  8
04ZCOL05-MAIN
  5
8A6
 10
0.0
 20
0.0
 30
0.0
 70
   128
 71
    71
 72
   -70
 73
   133
  0
VERTEX
  8
04ZCOL05-MAIN
  5
8A7
 10
0.0
 20
0.0
 30
0.0
 70
   128
 71
    73
 72
  -133
 73
    70
  0
VERTEX
  8
04ZCOL05-MAIN
  5
8A8
 10
0.0
 20
0.0
 30
0.0
 70
   128
 71
   739
 72
   -71
 73
    69
  0
VERTEX
  8
04ZCOL05-MAIN
  5
8A9
 10
0.0
 20
0.0
 30
0.0
 70
   128
 71
   133
 72
   -69
 73
    71
  0
VERTEX
  8
04ZCOL05-MAIN
  5
8AA
 10
0.0
 20
0.0
 30
0.0
 70
   128
 71
   738
 72
  -739
 73
    68
  0
VERTEX
  8
04ZCOL05-MAIN
  5
8AB
 10
0.0
 20
0.0
 30
0.0
 70
   128
 71
    69
 72
   -68
 73
   739
  0
VERTEX
  8
04ZCOL05-MAIN
  5
8AC
 10
0.0
 20
0.0
 30
0.0
 70
   128
 71
    46
 72
  -738
 73
   106
  0
VERTEX
  8
04ZCOL05-MAIN
  5
8AD
 10
0.0
 20
0.0
 30
0.0
 70
   128
 71
    68
 72
  -106
 73
   738
  0
VERTEX
  8
04ZCOL05-MAIN
  5
8AE
 10
0.0
 20
0.0
 30
0.0
 70
   128
 71
   736
 72
  -712
 73
    67
  0
VERTEX
  8
04ZCOL05-MAIN
  5
8AF
 10
0.0
 20
0.0
 30
0.0
 70
   128
 71
   131
 72
   -67
 73
   712
  0
VERTEX
  8
04ZCOL05-MAIN
  5
8B0
 10
0.0
 20
0.0
 30
0.0
 70
   128
 71
   735
 72
  -736
 73
   129
  0
VERTEX
  8
04ZCOL05-MAIN
  5
8B1
 10
0.0
 20
0.0
 30
0.0
 70
   128
 71
    67
 72
  -129
 73
   736
  0
VERTEX
  8
04ZCOL05-MAIN
  5
8B2
 10
0.0
 20
0.0
 30
0.0
 70
   128
 71
   734
 72
  -735
 73
    66
  0
VERTEX
  8
04ZCOL05-MAIN
  5
8B3
 10
0.0
 20
0.0
 30
0.0
 70
   128
 71
   129
 72
   -66
 73
   735
  0
VERTEX
  8
04ZCOL05-MAIN
  5
8B4
 10
0.0
 20
0.0
 30
0.0
 70
   128
 71
   733
 72
  -734
 73
   128
  0
VERTEX
  8
04ZCOL05-MAIN
  5
8B5
 10
0.0
 20
0.0
 30
0.0
 70
   128
 71
    66
 72
  -128
 73
   734
  0
VERTEX
  8
04ZCOL05-MAIN
  5
8B6
 10
0.0
 20
0.0
 30
0.0
 70
   128
 71
    65
 72
  -733
 73
   124
  0
VERTEX
  8
04ZCOL05-MAIN
  5
8B7
 10
0.0
 20
0.0
 30
0.0
 70
   128
 71
   128
 72
  -124
 73
   733
  0
VERTEX
  8
04ZCOL05-MAIN
  5
8B8
 10
0.0
 20
0.0
 30
0.0
 70
   128
 71
   729
 72
   -65
 73
   123
  0
VERTEX
  8
04ZCOL05-MAIN
  5
8B9
 10
0.0
 20
0.0
 30
0.0
 70
   128
 71
   124
 72
  -123
 73
    65
  0
VERTEX
  8
04ZCOL05-MAIN
  5
8BA
 10
0.0
 20
0.0
 30
0.0
 70
   128
 71
   728
 72
  -729
 73
    64
  0
VERTEX
  8
04ZCOL05-MAIN
  5
8BB
 10
0.0
 20
0.0
 30
0.0
 70
   128
 71
   123
 72
   -64
 73
   729
  0
VERTEX
  8
04ZCOL05-MAIN
  5
8BC
 10
0.0
 20
0.0
 30
0.0
 70
   128
 71
   727
 72
  -728
 73
    63
  0
VERTEX
  8
04ZCOL05-MAIN
  5
8BD
 10
0.0
 20
0.0
 30
0.0
 70
   128
 71
    64
 72
   -63
 73
   728
  0
VERTEX
  8
04ZCOL05-MAIN
  5
8BE
 10
0.0
 20
0.0
 30
0.0
 70
   128
 71
    62
 72
  -727
 73
    61
  0
VERTEX
  8
04ZCOL05-MAIN
  5
8BF
 10
0.0
 20
0.0
 30
0.0
 70
   128
 71
    63
 72
   -61
 73
   727
  0
VERTEX
  8
04ZCOL05-MAIN
  5
8C0
 10
0.0
 20
0.0
 30
0.0
 70
   128
 71
    59
 72
   -62
 73
   120
  0
VERTEX
  8
04ZCOL05-MAIN
  5
8C1
 10
0.0
 20
0.0
 30
0.0
 70
   128
 71
    61
 72
  -120
 73
    62
  0
VERTEX
  8
04ZCOL05-MAIN
  5
8C2
 10
0.0
 20
0.0
 30
0.0
 70
   128
 71
    58
 72
   -59
 73
    60
  0
VERTEX
  8
04ZCOL05-MAIN
  5
8C3
 10
0.0
 20
0.0
 30
0.0
 70
   128
 71
   120
 72
   -60
 73
    59
  0
VERTEX
  8
04ZCOL05-MAIN
  5
8C4
 10
0.0
 20
0.0
 30
0.0
 70
   128
 71
   724
 72
   -58
 73
   117
  0
VERTEX
  8
04ZCOL05-MAIN
  5
8C5
 10
0.0
 20
0.0
 30
0.0
 70
   128
 71
    60
 72
  -117
 73
    58
  0
VERTEX
  8
04ZCOL05-MAIN
  5
8C6
 10
0.0
 20
0.0
 30
0.0
 70
   128
 71
    57
 72
  -724
 73
   118
  0
VERTEX
  8
04ZCOL05-MAIN
  5
8C7
 10
0.0
 20
0.0
 30
0.0
 70
   128
 71
   117
 72
  -118
 73
   724
  0
VERTEX
  8
04ZCOL05-MAIN
  5
8C8
 10
0.0
 20
0.0
 30
0.0
 70
   128
 71
    56
 72
   -57
 73
   115
  0
VERTEX
  8
04ZCOL05-MAIN
  5
8C9
 10
0.0
 20
0.0
 30
0.0
 70
   128
 71
   118
 72
  -115
 73
    57
  0
VERTEX
  8
04ZCOL05-MAIN
  5
8CA
 10
0.0
 20
0.0
 30
0.0
 70
   128
 71
   720
 72
   -56
 73
   114
  0
VERTEX
  8
04ZCOL05-MAIN
  5
8CB
 10
0.0
 20
0.0
 30
0.0
 70
   128
 71
   115
 72
  -114
 73
    56
  0
VERTEX
  8
04ZCOL05-MAIN
  5
8CC
 10
0.0
 20
0.0
 30
0.0
 70
   128
 71
    55
 72
  -720
 73
   112
  0
VERTEX
  8
04ZCOL05-MAIN
  5
8CD
 10
0.0
 20
0.0
 30
0.0
 70
   128
 71
   114
 72
  -112
 73
   720
  0
VERTEX
  8
04ZCOL05-MAIN
  5
8CE
 10
0.0
 20
0.0
 30
0.0
 70
   128
 71
    52
 72
   -55
 73
    54
  0
VERTEX
  8
04ZCOL05-MAIN
  5
8CF
 10
0.0
 20
0.0
 30
0.0
 70
   128
 71
   112
 72
   -54
 73
    55
  0
VERTEX
  8
04ZCOL05-MAIN
  5
8D0
 10
0.0
 20
0.0
 30
0.0
 70
   128
 71
   717
 72
   -52
 73
    53
  0
VERTEX
  8
04ZCOL05-MAIN
  5
8D1
 10
0.0
 20
0.0
 30
0.0
 70
   128
 71
    54
 72
   -53
 73
    52
  0
VERTEX
  8
04ZCOL05-MAIN
  5
8D2
 10
0.0
 20
0.0
 30
0.0
 70
   128
 71
   715
 72
  -717
 73
   109
  0
VERTEX
  8
04ZCOL05-MAIN
  5
8D3
 10
0.0
 20
0.0
 30
0.0
 70
   128
 71
    53
 72
  -109
 73
   717
  0
VERTEX
  8
04ZCOL05-MAIN
  5
8D4
 10
0.0
 20
0.0
 30
0.0
 70
   128
 71
    48
 72
  -715
 73
    49
  0
VERTEX
  8
04ZCOL05-MAIN
  5
8D5
 10
0.0
 20
0.0
 30
0.0
 70
   128
 71
   109
 72
   -49
 73
   715
  0
VERTEX
  8
04ZCOL05-MAIN
  5
8D6
 10
0.0
 20
0.0
 30
0.0
 70
   128
 71
   712
 72
  -709
 73
   131
  0
VERTEX
  8
04ZCOL05-MAIN
  5
8D7
 10
0.0
 20
0.0
 30
0.0
 70
   128
 71
    47
 72
  -131
 73
   709
  0
VERTEX
  8
04ZCOL05-MAIN
  5
8D8
 10
0.0
 20
0.0
 30
0.0
 70
   128
 71
    51
 72
   -48
 73
    50
  0
VERTEX
  8
04ZCOL05-MAIN
  5
8D9
 10
0.0
 20
0.0
 30
0.0
 70
   128
 71
    49
 72
   -50
 73
    48
  0
VERTEX
  8
04ZCOL05-MAIN
  5
8DA
 10
0.0
 20
0.0
 30
0.0
 70
   128
 71
   709
 72
  -708
 73
    47
  0
VERTEX
  8
04ZCOL05-MAIN
  5
8DB
 10
0.0
 20
0.0
 30
0.0
 70
   128
 71
    41
 72
   -47
 73
   708
  0
VERTEX
  8
04ZCOL05-MAIN
  5
8DC
 10
0.0
 20
0.0
 30
0.0
 70
   128
 71
   707
 72
   -46
 73
   144
  0
VERTEX
  8
04ZCOL05-MAIN
  5
8DD
 10
0.0
 20
0.0
 30
0.0
 70
   128
 71
   106
 72
  -144
 73
    46
  0
VERTEX
  8
04ZCOL05-MAIN
  5
8DE
 10
0.0
 20
0.0
 30
0.0
 70
   128
 71
    42
 72
   -23
 73
    45
  0
VERTEX
  8
04ZCOL05-MAIN
  5
8DF
 10
0.0
 20
0.0
 30
0.0
 70
   128
 71
    83
 72
   -45
 73
    23
  0
VERTEX
  8
04ZCOL05-MAIN
  5
8E0
 10
0.0
 20
0.0
 30
0.0
 70
   128
 71
    44
 72
   -42
 73
    43
  0
VERTEX
  8
04ZCOL05-MAIN
  5
8E1
 10
0.0
 20
0.0
 30
0.0
 70
   128
 71
    45
 72
   -43
 73
    42
  0
VERTEX
  8
04ZCOL05-MAIN
  5
8E2
 10
0.0
 20
0.0
 30
0.0
 70
   128
 71
   708
 72
   -44
 73
    41
  0
VERTEX
  8
04ZCOL05-MAIN
  5
8E3
 10
0.0
 20
0.0
 30
0.0
 70
   128
 71
    43
 72
   -41
 73
    44
  0
VERTEX
  8
04ZCOL05-MAIN
  5
8E4
 10
0.0
 20
0.0
 30
0.0
 70
   128
 71
    22
 72
   -40
 73
    21
  0
VERTEX
  8
04ZCOL05-MAIN
  5
8E5
 10
0.0
 20
0.0
 30
0.0
 70
   128
 71
   105
 72
   -21
 73
    40
  0
VERTEX
  8
04ZCOL05-MAIN
  5
8E6
 10
0.0
 20
0.0
 30
0.0
 70
   128
 71
   703
 72
   -38
 73
    99
  0
VERTEX
  8
04ZCOL05-MAIN
  5
8E7
 10
0.0
 20
0.0
 30
0.0
 70
   128
 71
    39
 72
   -99
 73
    38
  0
VERTEX
  8
04ZCOL05-MAIN
  5
8E8
 10
0.0
 20
0.0
 30
0.0
 70
   128
 71
    37
 72
  -703
 73
   101
  0
VERTEX
  8
04ZCOL05-MAIN
  5
8E9
 10
0.0
 20
0.0
 30
0.0
 70
   128
 71
    99
 72
  -101
 73
   703
  0
VERTEX
  8
04ZCOL05-MAIN
  5
8EA
 10
0.0
 20
0.0
 30
0.0
 70
   128
 71
    36
 72
   -37
 73
    97
  0
VERTEX
  8
04ZCOL05-MAIN
  5
8EB
 10
0.0
 20
0.0
 30
0.0
 70
   128
 71
   101
 72
   -97
 73
    37
  0
VERTEX
  8
04ZCOL05-MAIN
  5
8EC
 10
0.0
 20
0.0
 30
0.0
 70
   128
 71
    34
 72
   -36
 73
    35
  0
VERTEX
  8
04ZCOL05-MAIN
  5
8ED
 10
0.0
 20
0.0
 30
0.0
 70
   128
 71
    97
 72
   -35
 73
    36
  0
VERTEX
  8
04ZCOL05-MAIN
  5
8EE
 10
0.0
 20
0.0
 30
0.0
 70
   128
 71
   700
 72
   -34
 73
    96
  0
VERTEX
  8
04ZCOL05-MAIN
  5
8EF
 10
0.0
 20
0.0
 30
0.0
 70
   128
 71
    35
 72
   -96
 73
    34
  0
VERTEX
  8
04ZCOL05-MAIN
  5
8F0
 10
0.0
 20
0.0
 30
0.0
 70
   128
 71
    33
 72
  -700
 73
    93
  0
VERTEX
  8
04ZCOL05-MAIN
  5
8F1
 10
0.0
 20
0.0
 30
0.0
 70
   128
 71
    96
 72
   -93
 73
   700
  0
VERTEX
  8
04ZCOL05-MAIN
  5
8F2
 10
0.0
 20
0.0
 30
0.0
 70
   128
 71
    32
 72
   -33
 73
    91
  0
VERTEX
  8
04ZCOL05-MAIN
  5
8F3
 10
0.0
 20
0.0
 30
0.0
 70
   128
 71
    93
 72
   -91
 73
    33
  0
VERTEX
  8
04ZCOL05-MAIN
  5
8F4
 10
0.0
 20
0.0
 30
0.0
 70
   128
 71
   690
 72
   -32
 73
    92
  0
VERTEX
  8
04ZCOL05-MAIN
  5
8F5
 10
0.0
 20
0.0
 30
0.0
 70
   128
 71
    91
 72
   -92
 73
    32
  0
VERTEX
  8
04ZCOL05-MAIN
  5
8F6
 10
0.0
 20
0.0
 30
0.0
 70
   128
 71
   697
 72
   -29
 73
    89
  0
VERTEX
  8
04ZCOL05-MAIN
  5
8F7
 10
0.0
 20
0.0
 30
0.0
 70
   128
 71
    90
 72
   -89
 73
    29
  0
VERTEX
  8
04ZCOL05-MAIN
  5
8F8
 10
0.0
 20
0.0
 30
0.0
 70
   128
 71
    26
 72
  -697
 73
    31
  0
VERTEX
  8
04ZCOL05-MAIN
  5
8F9
 10
0.0
 20
0.0
 30
0.0
 70
   128
 71
    89
 72
   -31
 73
   697
  0
VERTEX
  8
04ZCOL05-MAIN
  5
8FA
 10
0.0
 20
0.0
 30
0.0
 70
   128
 71
   696
 72
  -695
 73
    30
  0
VERTEX
  8
04ZCOL05-MAIN
  5
8FB
 10
0.0
 20
0.0
 30
0.0
 70
   128
 71
    85
 72
   -30
 73
   695
  0
VERTEX
  8
04ZCOL05-MAIN
  5
8FC
 10
0.0
 20
0.0
 30
0.0
 70
   128
 71
   693
 72
  -696
 73
    88
  0
VERTEX
  8
04ZCOL05-MAIN
  5
8FD
 10
0.0
 20
0.0
 30
0.0
 70
   128
 71
    30
 72
   -88
 73
   696
  0
VERTEX
  8
04ZCOL05-MAIN
  5
8FE
 10
0.0
 20
0.0
 30
0.0
 70
   128
 71
    27
 72
  -693
 73
    28
  0
VERTEX
  8
04ZCOL05-MAIN
  5
8FF
 10
0.0
 20
0.0
 30
0.0
 70
   128
 71
    88
 72
   -28
 73
   693
  0
VERTEX
  8
04ZCOL05-MAIN
  5
900
 10
0.0
 20
0.0
 30
0.0
 70
   128
 71
    29
 72
   -27
 73
    90
  0
VERTEX
  8
04ZCOL05-MAIN
  5
901
 10
0.0
 20
0.0
 30
0.0
 70
   128
 71
    28
 72
   -90
 73
    27
  0
VERTEX
  8
04ZCOL05-MAIN
  5
902
 10
0.0
 20
0.0
 30
0.0
 70
   128
 71
    38
 72
   -26
 73
    39
  0
VERTEX
  8
04ZCOL05-MAIN
  5
903
 10
0.0
 20
0.0
 30
0.0
 70
   128
 71
    31
 72
   -39
 73
    26
  0
VERTEX
  8
04ZCOL05-MAIN
  5
904
 10
0.0
 20
0.0
 30
0.0
 70
   128
 71
   695
 72
   -25
 73
    85
  0
VERTEX
  8
04ZCOL05-MAIN
  5
905
 10
0.0
 20
0.0
 30
0.0
 70
   128
 71
    24
 72
   -85
 73
    25
  0
VERTEX
  8
04ZCOL05-MAIN
  5
906
 10
0.0
 20
0.0
 30
0.0
 70
   128
 71
    40
 72
  -690
 73
   105
  0
VERTEX
  8
04ZCOL05-MAIN
  5
907
 10
0.0
 20
0.0
 30
0.0
 70
   128
 71
    92
 72
  -105
 73
   690
  0
VERTEX
  8
04ZCOL05-MAIN
  5
908
 10
0.0
 20
0.0
 30
0.0
 70
   128
 71
    23
 72
   -22
 73
    83
  0
VERTEX
  8
04ZCOL05-MAIN
  5
909
 10
0.0
 20
0.0
 30
0.0
 70
   128
 71
    21
 72
   -83
 73
    22
  0
VERTEX
  8
04ZCOL05-MAIN
  5
90A
 10
0.0
 20
0.0
 30
0.0
 70
   128
 71
     7
 72
     4
 73
    -1
  0
VERTEX
  8
04ZCOL05-MAIN
  5
90B
 10
0.0
 20
0.0
 30
0.0
 70
   128
 71
     1
 72
     8
 73
    -7
  0
VERTEX
  8
04ZCOL05-MAIN
  5
90C
 10
0.0
 20
0.0
 30
0.0
 70
   128
 71
     5
 72
   -20
 73
     7
  0
VERTEX
  8
04ZCOL05-MAIN
  5
90D
 10
0.0
 20
0.0
 30
0.0
 70
   128
 71
     4
 72
    -7
 73
    20
  0
VERTEX
  8
04ZCOL05-MAIN
  5
90E
 10
0.0
 20
0.0
 30
0.0
 70
   128
 71
     8
 72
    -1
 73
     9
  0
VERTEX
  8
04ZCOL05-MAIN
  5
90F
 10
0.0
 20
0.0
 30
0.0
 70
   128
 71
     2
 72
    -9
 73
     1
  0
VERTEX
  8
04ZCOL05-MAIN
  5
910
 10
0.0
 20
0.0
 30
0.0
 70
   128
 71
     9
 72
     2
 73
   -19
  0
VERTEX
  8
04ZCOL05-MAIN
  5
911
 10
0.0
 20
0.0
 30
0.0
 70
   128
 71
    19
 72
    18
 73
    -9
  0
VERTEX
  8
04ZCOL05-MAIN
  5
912
 10
0.0
 20
0.0
 30
0.0
 70
   128
 71
     3
 72
   -12
 73
    16
  0
VERTEX
  8
04ZCOL05-MAIN
  5
913
 10
0.0
 20
0.0
 30
0.0
 70
   128
 71
    17
 72
   -16
 73
    12
  0
VERTEX
  8
04ZCOL05-MAIN
  5
914
 10
0.0
 20
0.0
 30
0.0
 70
   128
 71
    16
 72
    17
 73
   -13
  0
VERTEX
  8
04ZCOL05-MAIN
  5
915
 10
0.0
 20
0.0
 30
0.0
 70
   128
 71
    13
 72
    15
 73
   -16
  0
VERTEX
  8
04ZCOL05-MAIN
  5
916
 10
0.0
 20
0.0
 30
0.0
 70
   128
 71
    15
 72
   -13
 73
    14
  0
VERTEX
  8
04ZCOL05-MAIN
  5
917
 10
0.0
 20
0.0
 30
0.0
 70
   128
 71
    10
 72
   -14
 73
    13
  0
VERTEX
  8
04ZCOL05-MAIN
  5
918
 10
0.0
 20
0.0
 30
0.0
 70
   128
 71
    11
 72
     6
 73
   -12
  0
VERTEX
  8
04ZCOL05-MAIN
  5
919
 10
0.0
 20
0.0
 30
0.0
 70
   128
 71
    12
 72
     3
 73
   -11
  0
VERTEX
  8
04ZCOL05-MAIN
  5
91A
 10
0.0
 20
0.0
 30
0.0
 70
   128
 71
    14
 72
   -10
 73
    19
  0
VERTEX
  8
04ZCOL05-MAIN
  5
91B
 10
0.0
 20
0.0
 30
0.0
 70
   128
 71
    18
 72
   -19
 73
    10
  0
VERTEX
  8
04ZCOL05-MAIN
  5
91C
 10
0.0
 20
0.0
 30
0.0
 70
   128
 71
    17
 72
    -8
 73
    13
  0
VERTEX
  8
04ZCOL05-MAIN
  5
91D
 10
0.0
 20
0.0
 30
0.0
 70
   128
 71
     9
 72
   -13
 73
     8
  0
VERTEX
  8
04ZCOL05-MAIN
  5
91E
 10
0.0
 20
0.0
 30
0.0
 70
   128
 71
    13
 72
     9
 73
   -18
  0
VERTEX
  8
04ZCOL05-MAIN
  5
91F
 10
0.0
 20
0.0
 30
0.0
 70
   128
 71
    18
 72
    10
 73
   -13
  0
VERTEX
  8
04ZCOL05-MAIN
  5
920
 10
0.0
 20
0.0
 30
0.0
 70
   128
 71
    12
 72
     7
 73
    -8
  0
VERTEX
  8
04ZCOL05-MAIN
  5
921
 10
0.0
 20
0.0
 30
0.0
 70
   128
 71
     8
 72
    17
 73
   -12
  0
VERTEX
  8
04ZCOL05-MAIN
  5
922
 10
0.0
 20
0.0
 30
0.0
 70
   128
 71
     6
 72
    -5
 73
    12
  0
VERTEX
  8
04ZCOL05-MAIN
  5
923
 10
0.0
 20
0.0
 30
0.0
 70
   128
 71
     7
 72
   -12
 73
     5
  0
VERTEX
  8
04ZCOL05-MAIN
  5
924
 10
0.0
 20
0.0
 30
0.0
 70
   128
 71
    20
 72
    11
 73
    -3
  0
VERTEX
  8
04ZCOL05-MAIN
  5
925
 10
0.0
 20
0.0
 30
0.0
 70
   128
 71
     3
 72
     4
 73
   -20
  0
VERTEX
  8
04ZCOL05-MAIN
  5
926
 10
0.0
 20
0.0
 30
0.0
 70
   128
 71
     4
 72
    -3
 73
     1
  0
VERTEX
  8
04ZCOL05-MAIN
  5
927
 10
0.0
 20
0.0
 30
0.0
 70
   128
 71
    16
 72
    -1
 73
     3
  0
VERTEX
  8
04ZCOL05-MAIN
  5
928
 10
0.0
 20
0.0
 30
0.0
 70
   128
 71
     2
 72
   -15
 73
    19
  0
VERTEX
  8
04ZCOL05-MAIN
  5
929
 10
0.0
 20
0.0
 30
0.0
 70
   128
 71
    14
 72
   -19
 73
    15
  0
VERTEX
  8
04ZCOL05-MAIN
  5
92A
 10
0.0
 20
0.0
 30
0.0
 70
   128
 71
     1
 72
    16
 73
   -15
  0
VERTEX
  8
04ZCOL05-MAIN
  5
92B
 10
0.0
 20
0.0
 30
0.0
 70
   128
 71
    15
 72
     2
 73
    -1
  0
SEQEND
  8
04ZCOL05-MAIN
  5
92C
  0
INSERT
  8
VLLAYER
  5
9A3
  2
VISLINKCFG
 10
0.0
 20
0.0
 30
0.0
 41
108.0
 42
108.0
 43
108.0
1001
VISUAL_LINK
1000
9A3
1070
   256
1040
0.03
1070
  8448
1040
0.302
1040
0.302
1040
0.302
  0
INSERT
  8
VLLAYER
  5
9A4
  2
VLMAT
 10
0.0
 20
0.0
 30
0.0
 41
108.0
 42
108.0
 43
108.0
1001
VISUAL_LINK
1070
-24576
1000
CD-MATTE_WHITE
1070
-24560
1070
    17
1070
   235
1070
   235
1070
   235
1070
-24544
1070
    17
1070
   235
1070
   235
1070
   235
1070
-24528
1070
    17
1070
   235
1070
   235
1070
   235
1070
-24512
1040
0.0
1070
-24496
1040
0.0
1070
-24494
1070
     0
1070
-24493
1070
     0
1070
-24320
1070
     3
1070
-24064
1070
     0
1000
ÿ
1070
-24048
1070
     0
1000
ÿ
1070
-24032
1070
     0
1000
ÿ
1070
-24016
1070
     0
1000
ÿ
1070
-24447
1070
-23776
1070
    40
1004
01DE00000000A04000000040000000000000000000000000FA000000FA000000FA00000006000000
1070
-23772
1070
    40
1004
01DE000000000C420000C0400000000000000000FF000000FA000000FA000000FA00000002000000
  0
INSERT
  8
VLLAYER
  5
9A5
  2
VLTREE
 10
0.0
 20
0.0
 30
0.0
 41
108.0
 42
108.0
 43
108.0
1001
VISUAL_LINK
1000
ROOT
1070
     4
1070
     0
1070
     0
1070
     1
1005
9A6
1070
    22
1010
0.0
1020
0.0
1030
0.0
1070
    17
1070
    45
  0
INSERT
  8
VLLAYER
  5
9A6
  2
VLTREE
 10
0.0
 20
0.0
 30
0.0
 41
108.0
 42
108.0
 43
108.0
1001
VISUAL_LINK
1000
04zcol05
1070
     8
1070
     0
1070
     2
1070
     1
1005
9A7
1070
    22
1010
0.0
1020
0.0
1030
0.0
1070
     6
1005
9A4
1070
    17
1070
    45
  0
INSERT
  8
VLLAYER
  5
9A7
  2
VLTREE
 10
0.0
 20
0.0
 30
0.0
 41
108.0
 42
108.0
 43
108.0
1001
VISUAL_LINK
1000
-MAIN
1070
     5
1070
     0
1070
     0
1070
    22
1010
0.0
1020
0.0
1030
0.0
1070
     6
1005
9A4
  0
INSERT
  8
VLLAYER
  5
9A8
  2
VLMAPRT
 10
0.0
 20
0.0
 30
0.0
 41
108.0
 42
108.0
 43
108.0
1001
VISUAL_LINK
1070
    23
1005
9A8
1070
     7
1005
9A5
1070
    12
1000
9A8
1070
     1
1005
9A9
  0
INSERT
  8
VLLAYER
  5
9A9
  2
VLMAP
 10
0.0
 20
0.0
 30
0.0
 41
108.0
 42
108.0
 43
108.0
1001
VISUAL_LINK
1070
     3
1005
79
1005
9A7
  0
ENDSEC
  0
EOF
